» » »

Beatles - Doctor Robert Tabs

Artists:  A B C D E F G H I J K L M N O P Q R S T U V W X Y Z # 

Doctor Robert Tabs

(ver. 2) Click to play this song!
Beatles
 Rating:
4/5 (4 votes)

 Doctor Robert lessons Tabs too difficult? Try these video lessons and learn fast
 
                Gtr I (E A D G B E) - 'John Lennon - Electric Guitar'
Gtr II (E A D G B E) - 'George Harrison - Electric Guitar'


 Intro
  Q=160
  A7    D5/A      A7       D5/A      A7      D5/A      A7      D5/A
 4/4
  Gtr I
  Q  q  E Q   E    Q   q   E  Q  E    Q   q  E  Q  E    Q   q  E  Q  E
|---------------|------------------|-----------------|-----------------|
|---------------|------------------|-----------------|-----------------|
|----6----7-----|------6------7----|------6-----7----|------6-----7----|
|----5----7---5-|-(5)--5------7--5-|-(5)--5-----7--5-|-(5)--5-----7--5-|
|---------------|------------------|-----------------|-----------------|
|-5-----5-------|--5-------5-------|--5------5-------|--5------5-------|
|
| Gtr II
| H     Q   E E   +Q.    E Q.    E    Q   Q  Q.    E   +H      Q.    E
|---------------|------------------|-----------------|-----------------|
|---------------|------------------|-----------------|-----------------|
|---------------|------------------|-----------------|-----------------|
|-------------5-|-(5)----5h7-----5-|------5--7-----5-|-(5)-----7-----5-|
|---------------|------------------|--7--------------|-----------------|
|---------------|------------------|-----------------|-----------------|


   1st, 2nd & 3rd Verse
    $
    A7      D5/A      A7       D5/A      A7       D5/A      A7      D5/A
     Q   q  E  Q  E    Q   q   E  Q  E    Q   q   E  Q  E    Q   q  E Q  E
||------------------|------------------|------------------|-----------------|
||o-----------------|------------------|------------------|-----------------|
||-------6-----7----|------6------7----|------6------7----|------6----7-----|
||--(5)--5-----7--5-|-(5)--5------7--5-|-(5)--5------7--5-|-(5)--5----7--5--|
||o-----------------|------------------|------------------|-----------------|
||---5------5-------|--5-------5-------|--5-------5-------|--5------5-------|
|
|    Q   Q  Q.    E   +Q.    E Q.    E   +Q.    E Q.    E    Q   Q  H
||------------------|------------------|------------------|-----------------|
||o-----------------|------------------|------------------|-----------------|
||------------------|------------------|------------------|-----------------|
||-------5--7-----5-|-(5)----5h7-----5-|-(5)----5h7-----5-|------5--7-------|
||o--7--------------|------------------|------------------|--7--------------|
||------------------|------------------|------------------|-----------------|


  A7      D5/A      A7      D5/A      A7      D5/A      A7      D5/A
   Q   q  E  Q  E    Q   q  E  Q  E    Q   q  E  Q  E    Q   q  E Q  E
|-----------------|-----------------|-----------------|-----------------|
|-----------------|-----------------|-----------------|-----------------|
|------6-----7----|------6-----7----|------6-----7----|------6----7-----|
|-(5)--5-----7--5-|-(5)--5-----7--5-|-(5)--5-----7--5-|-(5)--5----7--5--|
|-----------------|-----------------|-----------------|-----------------|
|--5------5-------|--5------5-------|--5------5-------|--5------5-------|
|
|  Q   Q  Q.    E   +H      Q.    E   +H      Q.    E   +H      H
|-----------------|-----------------|-----------------|-----------------|
|-----------------|-----------------|-----------------|-----------------|
|-----------------|-----------------|-----------------|-----------------|
|------5--7-----5-|-(5)-----7-----5-|-(5)-----7-----5-|-(5)-----7-------|
|--7--------------|-----------------|-----------------|-----------------|
|-----------------|-----------------|-----------------|-----------------|


  F#7   B5/F#     F#7     B5/F#     F#7     B5/F#     F#7     B5/F#
  Q  q  E Q   E    Q   q  E Q   E    Q   q  E Q   E    Q   q  E Q   E
|---------------|-----------------|-----------------|------------------|
|---------------|-----------------|-----------------|------------------|
|----3----4-----|------3----4-----|------3----4-----|------3----4------|
|----2----4---2-|-(2)--2----4---2-|-(2)--2----4---2-|-(2)--2----4---2--|
|---------------|-----------------|-----------------|------------------|
|-2-----2-------|--2------2-------|--2------2-------|--2------2--------|
|
| H     Q   Q      H      Q   Q      H      Q   Q      H      Q   Q
|---------------|-----------------|-----------------|------------------|
|---------------|-----------------|-----------------|------------------|
|---------------|-----------------|-----------------|------------------|
|---------------|-----------------|-----------------|------------------|
|-4---------2---|--4----------2---|--4----------2---|--4----------2----|
|-2-----2-------|--2------2-------|--2------2-------|--2------2--------|


  F#7     B5/F#     F#7     B5/F#     E7    E5
   Q   Q  E Q   E    Q   Q  E Q   E   Q  Q  E Q   E
|-----------------|-----------------|---------------|
|-----------------|-----------------|---------------|
|------3----4-----|------3----4-----|-1--1----2---2-|
|-(2)--2----4---2-|-(2)--2----4---2-|-0--0----2---2-|
|-----------------|-----------------|---------------|
|--2------2-------|--2------2-------|-------0-------|
|
|  H      Q   Q      H      Q   Q     H     Q   Q
|-----------------|-----------------|---------------|
|-----------------|-----------------|---------------|
|-----------------|-----------------|---------------|
|-----------------|-----------------|---------------|
|--4----------2---|--4----------2---|-----------0---|
|--2------2-------|--2------2-------|-0-----0-------|


                  1.
  F#7             B7
  Q  E E E E Q    Q  q  E Q   E   +Q   Q  E E E E
|---------------|---------------|------------------||
|---------------|---------------|-----------------o||
|---------------|---------9-----|-----------9------||
|----4-----4----|----9----9---7-|-(7)--7--9-9---0--||
|--------4-4----|---------------|-----------------o||
|-2----2-2---2--|-7-----7-------|------------------||
|
| H      H        H     Q   E E    H      Q   Q
|---------------|---------------|------------------||
|---------------|---------------|-----------------o||
|---------------|---------------|------------------||
|---------------|-------------2s|==4---------------||
|--------4------|-2-----2-----0s|==2------2---2---o||
|-2------2------|---------------|------------------||


  2.,D.S.
  B
  Q.    E Q.    E   Q  Q  Q    Q
|-----------------|----------------||
|-----------------|----4-------4---||
|-4-----4-4-----4-|----4-------4---||
|-----------------|----4-------4---||
|-----------------|-2-----2--------||
|-----------------|----------------||
|
| Q   E E E E E E   Q  Q  E E +Q
|-----2-----------|----------------||
|---------5p4---4h|=5-----5p4-(4)--||
|-4-----4-----4---|----4-----------||
|-----------------|----------------||
|-----------------|----------------||
|-----------------|----------------||


 Bridge
  B
  H    H      H    Q..   S   H    Q..   S
|-----------|--------------|----------------|
|-----------|--------------|----------------|
|-4----4----|-4----4-----4-|-4----4-----4---|
|-----------|--------------|----------------|
|-----------|--------------|----------------|
|-----------|--------------|----------------|
|
| W           W              W
|-2---------|--------------|----------------|
|-----------|--------------|----------------|
|-----------|--------------|----------------|
|-----------|--------------|----------------|
|-----------|--------------|----------------|
|-----------|--------------|----------------|


  H    Q..   S   H    Q..   S   H    Q..   S   H    Q..   S   H    Q..   S
|--------------|--------------|--------------|--------------|----------------|
|--------------|--------------|--------------|--------------|----------------|
|-4----4-----4-|-4----4-----4-|-4----4-----4-|-4----4-----4-|-4----4-----4---|
|--------------|--------------|--------------|--------------|----------------|
|--------------|--------------|--------------|--------------|----------------|
|--------------|--------------|--------------|--------------|----------------|


               To Coda       D.S. al Coda &
  A7    D5/A            A7       D5/A        A7      D5/A
  Q  q  E Q         E    Q   q   E Q   E     Q    q  E Q   E
|---------------------|-------------------||-----------------||
|---------------------|-------------------||-----------------||
|----6----7-----------|------6-----7------||------6----7-----||
|----5----7---------5-|-(5)--5-----7---5--||------5----7---5-||
|---------------------|-------------------||-----------------||
|-5-----5-------------|--5-------5--------||-5-------5-------||
|
| Gtr II
| Q  Q  E S  S  +Q      +Q   E E E E E E     E Q.    E Q.
|----5----5-(5)-(5)---|-(5)------------5--||-5---------------||
|----2----2h=3--(3)---|-(3)--3p2---2h3----||-3h5-----5-3-----||
|---------------------|----------2--------||-----------------||
|---------------------|-------------------||-----------------||
|---------------------|-------------------||-----------------||
|---------------------|-------------------||-----------------||


 Outro
  A7      D5/A        A7        D5/A      A7      D5/A
   Q   q  E Q     E    Q    q   E Q   E    Q   q   E  Q   E
|-------------------|-------------------|-------------------|
|-------------------|-------------------|-------------------|
|------6----7-------|-------6-----7-----|------6------7-----|
|-(5)--5----7-----5-|-(5)---5-----7---5-|-(5)--5------7---5-|
|-------------------|-------------------|-------------------|
|--5------5---------|--5--------5-------|--5-------5--------|
|
|  H      E E +E  E    E  E E E E E E E    Q   Q  +E  E Q
|-----------5-(5)---|--5----------------|------5--(5)-------|
|-------------------|-----3p2---2-3-3p2-|-------------2h3---|
|-----------------2-|---------2---------|-------------------|
|-------------------|-------------------|-------------------|
|-------------------|-------------------|-------------------|
|-------------------|-------------------|-------------------|


  A7       D5/A      A7      D5/A      A7          D5/A
   Q   q   E Q   E    Q   q  E Q   E    Q     q    E Q   E
|------------------|-----------------|---------------------|
|------------------|-----------------|---------------------|
|------6-----7-----|------6----7-----|--------6------7-----|
|-(5)--5-----7---5-|-(5)--5----7---5-|-(5)----5------7---5-|
|------------------|-----------------|---------------------|
|--5-------5-------|--5------5-------|--5----------5-------|
|
|  Q.    E E E E E    H      E E E E    E  E +E  E E E E E
|--5---------------|-----------------|-----5-(5)---5-------|
|--------2h3-3-3p2-|---------3p2---2h|==3------------2-3-2-|
|------------------|-------------2---|-----------2---------|
|------------------|-----------------|---------------------|
|------------------|-----------------|---------------------|
|------------------|-----------------|---------------------|


  A7       D5/A      A7       D5/A     F#7
   Q   q   E Q   E    Q    q  E Q.     Q  Q  Q   Q
|------------------|-----------------|-2--2--2---2---|
|------------------|-----------------|-2--2--2---2---|
|------6-----7-----|-------6----7----|-3--3--3---3---|
|-(5)--5-----7---5-|-(5)---5----7----|-4--4--4---4---|
|------------------|-----------------|-4--4--4---4---|
|--5-------5-------|--5-------5------|-2--2--2---2---|
|
|  Q.    E E E E E    E  E Q  H        H     E E E E
|--5---------------|----------5------|---------2-----|
|--------2h3-3-3p2-|-----2-2---------|-----------2h4-|
|------------------|-----------------|-------3-------|
|------------------|-----------------|---------------|
|------------------|-----------------|---------------|
|------------------|-----------------|---------------|


                  B
  W               Q   Q  Q  Q     +W
|---------------|-7---7--7--7---|-(7)----*|
|---------------|-7---7--7--7---|-(7)----*|
|---------------|-8---8--8--8---|-(8)----*|
|---------------|-9---9--9--9---|-(9)----*|
|---------------|-9---9--9--9---|-(9)----*|
|---------------|-7---7--7--7---|-(7)----*|
|
| E E E E Q  Q    E E Q  Q  E E   +W
|-2-------2-----|---2-----------|--------*|
|---4p2------2--|-----4--5--5p4-|-(4)----*|
|-------3-------|-4-------------|--------*|
|---------------|---------------|--------*|
|---------------|---------------|--------*|
|---------------|---------------|--------*|

            
Submit corrections


        Doctor Robert lessons Hard to play? Try these video lessons and learn fast Doctor Robert lessons
        
↑ Back to top | Tablatures and chords for acoustic guitar and electric guitar, ukulele, drums are parodies/interpretations of the original songs. You may use it for private study, scholarship, research or language learning purposes only