» » »

Beatles - Doctor Robert Bass

Artists:  A B C D E F G H I J K L M N O P Q R S T U V W X Y Z # 

Doctor Robert Bass

(ver. 3) Click to play this song!
Beatles
 Rating:
4/5 (4 votes)

 Doctor Robert lessons Tabs too difficult? Try these video lessons and learn fast
 
                Gtr I (E A D G) - 'Paul McCartney - Bass'


 Intro
  Q=160
 4/4
  Gtr I
  Q.   E q  q    Q.   E q  q    Q.   E Q.   E   Q.   E q  q
|--------------|--------------|---------------|--------------||
|-7----7----5--|-7----7----6--|-7----7--------|-7----7----5--||
|--------7-----|--------7-----|--------7----7-|--------7-----||
|--------------|--------------|---------------|--------------||


   1st - 3rd Verses
    $
    Q.   E Q.   E   Q.   E q  q    Q.   E Q.   E   Q.   E q  q
||----------------|--------------|---------------|---------------|
||o-7----7--------|-7----7-------|-7----7--------|-7----7--------|
||o--------7----7-|--------7--7--|--------7----7-|--------7--7---|
||----------------|--------------|---------------|---------------|


  Q.   E Q.   E   Q.   E q  q    Q.   E Q.   E   Q.   E q  q
|---------------|--------------|---------------|---------------|
|-7----7--------|-7----7-------|-7----7--------|-7----7----5---|
|--------7----7-|--------7--7--|--------7----7-|--------7------|
|---------------|--------------|---------------|---------------|


  Q.   E Q.   E   Q.   E E E Q    Q.   E Q.   E   Q.   E E E Q
|---------------|---------------|---------------|----------------|
|-4----4--------|-4----4--------|-4----4--------|-4----4---------|
|--------4----4-|------------4--|--------4----4-|------------4---|
|---------------|--------5-7----|---------------|--------5-7-----|


  Q.   E Q.   E   Q.   E q  q    Q.   E Q  Q
|---------------|--------------|--------------|
|-4----4--------|-4----4----4--|------0-------|
|--------4----4-|--------4-----|-7------0-----|
|---------------|--------------|-----------0--|


                1.
  Q.   E q  q    Q.   E q  Q    Q.   E q  q
|--------------|--------------|---------------||
|-4----4----4--|--------------|-----------9--o||
|--------4-----|-2----2-------|--------9-----o||
|--------------|--------2--5--|-7----7--------||


                              Bridge
  2.,D.S.
  Q.   E H      Q.   E H        H    Q  Q
|-------------|-------------||-------------|
|--------4----|-------------||-/9----9--9--|
|-2----2------|-2----2-2----||-------------|
|-------------|-------------||-------------|


  H    H      Q  Q  Q  Q    H    Q..   S
|-----------|-------------|--------------|
|-9----9----|-9--9--9--9--|-9----9-----9-|
|-----------|-------------|--------------|
|-----------|-------------|--------------|


  Q  Q  Q  Q    H    H      Q  Q  Q  Q    H    H
|-------------|-----------|-------------|-----------|
|-9--9--9--9--|-9----9----|-9--9--9--9--|-9----9----|
|-------------|-----------|-------------|-----------|
|-------------|-----------|-------------|-----------|


       To Coda    D.S. al Coda   &
  Q  Q  Q  Q    Q.   E E E Q     Q.   E E E Q
|-------------|---------------||---------------||
|-7--7-----5--|-7----7--------||-7----7-7------||
|-------7-----|----------5-7--||----------5-7--||
|-------------|--------5------||---------------||


 Outro
  Q.   E q  q    Q.   E E E Q    Q.   E Q.   E
|--------------|---------------|---------------|
|-7----7-------|-7----7-7------|-7----7--------|
|--------7--5--|----------5-7--|--------7----7-|
|--------------|---------------|---------------|


  Q.   E E E E E   Q.   E Q.   E   Q.   E Q.   E
|----------------|---------------|---------------|
|-7----7-------5-|-7----7--------|-7----7--------|
|----------5-7---|--------7----7-|--------7----7-|
|--------5-------|---------------|---------------|


  Q.   E q  q    Q.   E H      Q  Q  Q  Q
|--------------|-------------|-------------|
|-7----7----6--|-7----7------|-4--4--4-----|
|--------7-----|--------7----|----------4--|
|--------------|-------------|-------------|


  H    H      H    Q  Q    +W
|-----------|-4-------4--|-(4)----*|
|-4----4----|------4-----|--------*|
|-----------|------------|--------*|
|-----------|------------|--------*|

            
Submit corrections


        Doctor Robert lessons Hard to play? Try these video lessons and learn fast Doctor Robert lessons
        
↑ Back to top | Tablatures and chords for acoustic guitar and electric guitar, ukulele, drums are parodies/interpretations of the original songs. You may use it for private study, scholarship, research or language learning purposes only