» » »

Beatles - Cant Buy Me Love Tabs

Artists:  A B C D E F G H I J K L M N O P Q R S T U V W X Y Z # 

Cant Buy Me Love Tabs

(ver. 2) Click to play this song!
Beatles
 Rating:
4/5 (4 votes)

 Cant Buy Me Love  lessons Tabs too difficult? Try these video lessons and learn fast
 
                Gtr I (E A D G B E) - 'George Harrison - Electric Guitar'
Gtr II (E A D G B E) - 'John Lennon - Acoustic Guitar'


 Intro
  Q=173(8=s8)
            Em                       Am
 4/4
  Gtr II (Ac. Gtr.)
  H    Q  E E   +Q   Q    E  E E E   Q  Q    E  E E E
|-----------0-|-(0)--0----0--0-0-0-|-0--0----0--0-0-0-|
|-----------0-|-(0)--0----0--0-0-0-|-1--1----1--1-1-1-|
|-----------0-|-(0)--0----0--0-0-0-|-2--2----2--2-2-2-|
|-----------2-|-(2)--2----2--2-2-2-|-2--2----2--2-2-2-|
|-----------2-|-(2)--2----2--2-2-2-|-0--0----0--0-0-0-|
|-----------0-|-(0)--0----0--0-0-0-|------------------|
|
| Gtr I (El. Gtr.)
| W              Q   E E +H          Q  E E +H
|-------------|--0-----0-(0)-------|-0----0-(0)-------|
|-------------|--0-----0-(0)-------|-1----1-(1)-------|
|-------------|--0-----0-(0)-------|-2----2-(2)-------|
|-------------|--2-----2-(2)-------|-2----2-(2)-------|
|-------------|--2-----2-(2)-------|-0----0-(0)-------|
|-------------|--0-----0-(0)-------|------------------|


  Em                 Am                 Dm7
  Q  Q    E  E E E   Q  Q    E  E E E   Q  Q    E  E E E
|-0--0----0--0-0-0-|-0--0----0--0-0-0-|-1--1----1--1-1-1-|
|-0--0----0--0-0-0-|-1--1----1--1-1-1-|-1--1----1--1-1-1-|
|-0--0----0--0-0-0-|-2--2----2--2-2-2-|-2--2----2--2-2-2-|
|-2--2----2--2-2-2-|-2--2----2--2-2-2-|-0--0----0--0-0-0-|
|-2--2----2--2-2-2-|-0--0----0--0-0-0-|------------------|
|-0--0----0--0-0-0-|------------------|------------------|
|
| Q  E E +H          Q  E E +H          Q  E E +H
|-0----0-(0)-------|-0----0-(0)-------|-1----1-(1)-------|
|-0----0-(0)-------|-1----1-(1)-------|-1----1-(1)-------|
|-0----0-(0)-------|-2----2-(2)-------|-2----2-(2)-------|
|-2----2-(2)-------|-2----2-(2)-------|-0----0-(0)-------|
|-2----2-(2)-------|-0----0-(0)-------|------------------|
|-0----0-(0)-------|------------------|------------------|


                      1st - 4th Verses
                   $
                   $$
  G6                   C7
  Q  Q    E  E E E     Q  Q  Q  Q    Q  Q  E E Q    Q  Q  Q  Q
|-3--3----3--3-3-3-||--0--0--0--0--|-0--0--0-0-0--|-0--0--0--0--|
|-5--5----5--5-5-5-||o-1--1--1--1--|-1--1--1-1-1--|-1--1--1--1--|
|-4--4----4--4-4-4-||--3--3--3--3--|-3--3--3-3-3--|-3--3--3--3--|
|-5--5----5--5-5-5-||--2--2--2--2--|-2--2--2-2-2--|-2--2--2--2--|
|-5--5----5--5-5-5-||o-3--3--3--3--|-3--3--3-3-3--|-3--3--3--3--|
|-3--3----3--3-3-3-||--------------|--------------|-------------|
|
| Q  E E +Q.     E     W             W              W
|-3----3-(3)-----3-||--------------|--------------|-------------|
|-5----5-(5)-----5-||o-------------|--------------|-------------|
|-4----4-(4)-----4-||--------------|--------------|-------------|
|-5----5-(5)-----5-||--------------|--------------|-------------|
|------------------||o-------------|--------------|-------------|
|------------------||--------------|--------------|-------------|


                  F7                            C7
  Q  E E E E Q    Q  Q  Q  Q    Q  E E E E Q    Q  Q  Q  Q
|-0--0-0-0-0-0--|-1--1--1--1--|-1--1-1-1-1-1--|-0--0--0--0--|
|-1--1-1-1-1-1--|-1--1--1--1--|-1--1-1-1-1-1--|-1--1--1--1--|
|-3--3-3-3-3-3--|-2--2--2--2--|-2--2-2-2-2-2--|-3--3--3--3--|
|-2--2-2-2-2-2--|-1--1--1--1--|-1--1-1-1-1-1--|-2--2--2--2--|
|-3--3-3-3-3-3--|-3--3--3--3--|-3--3-3-3-3-3--|-3--3--3--3--|
|---------------|-1--1--1--1--|-1--1-1-1-1-1--|-------------|


                                                     To Coda
                                                     To Coda
                   G7            F7
  Q  E E E E E E   Q  Q  Q  Q    Q  Q  H      Q  Q  E E E E
|-0--0-0-0-0-0-0-|-3--3--3--3--|-1----------|-1--1--1-1-1-1---|
|-1--1-1-1-1-1-1-|-3--3--3--3--|-1----------|-1--1--1-1-1-1---|
|-3--3-3-3-3-3-3-|-4--4--4--4--|-2----------|-2--2--2-2-2-2---|
|-2--2-2-2-2-2-2-|-3--3--3--3--|-1----------|-1--1--1-1-1-1---|
|-3--3-3-3-3-3-3-|-5--5--5--5--|-3----------|-3--3--3-3-3-3---|
|----------------|-3--3--3--3--|-1----------|-1--1--1-1-1-1---|


                 Chorus
  C7              Em               Am                C7
  Gtr II
  Q  Q  Q  Q      Q  Q    Q   Q    Q  Q    E  E Q    Q  Q  E E E E
|-0--0--0--0---||-0--0----0---0--|-0--0----0--0-0--|-0--0--0-0-0-0-|
|-1--1--1--1--o||-0--0----0---0--|-1--1----1--1-1--|-1--1--1-1-1-1-|
|-3--3--3--3---||-0--0----0---0--|-2--2----2--2-2--|-3--3--3-3-3-3-|
|-2--2--2--2---||-2--2----2---2--|-2--2----2--2-2--|-2--2--2-2-2-2-|
|-3--3--3--3--o||-2--2----2---2--|-0--0----0--0-0--|-3--3--3-3-3-3-|
|--------------||-0--0----0---0--|-----------------|---------------|
|
| Gtr I
| W               Q  E E +H        Q  E E +H         W
|--------------||-0----0-(0)-----|-0----0-(0)------|---------------|
|-------------o||-0----0-(0)-----|-1----1-(1)------|---------------|
|--------------||-0----0-(0)-----|-2----2-(2)------|---------------|
|--------------||-2----2-(2)-----|-2----2-(2)------|---------------|
|-------------o||-2----2-(2)-----|-0----0-(0)------|---------------|
|--------------||-0----0-(0)-----|-----------------|---------------|


                 Em                 Am                Dm7
  Q  Q  E E Q    Q  Q    E  E E E   Q  Q    E  E Q    Q  Q    E  E Q
|-0--0--0-0-0--|-0--0----0--0-0-0-|-0--0----0--0-0--|-1--1----1--1-1--|
|-1--1--1-1-1--|-0--0----0--0-0-0-|-1--1----1--1-1--|-1--1----1--1-1--|
|-3--3--3-3-3--|-0--0----0--0-0-0-|-2--2----2--2-2--|-2--2----2--2-2--|
|-2--2--2-2-2--|-2--2----2--2-2-2-|-2--2----2--2-2--|-0--0----0--0-0--|
|-3--3--3-3-3--|-2--2----2--2-2-2-|-0--0----0--0-0--|-----------------|
|--------------|-0--0----0--0-0-0-|-----------------|-----------------|
|
| W              Q  E E +H          Q  E E +H         Q  E E +H
|--------------|-0----0-(0)-------|-0----0-(0)------|-1----1-(1)------|
|--------------|-0----0-(0)-------|-1----1-(1)------|-1----1-(1)------|
|--------------|-0----0-(0)-------|-2----2-(2)------|-2----2-(2)------|
|--------------|-2----2-(2)-------|-2----2-(2)------|-0----0-(0)------|
|--------------|-2----2-(2)-------|-0----0-(0)------|-----------------|
|--------------|-0----0-(0)-------|-----------------|-----------------|


    D.S. al Coda &
  G6                C7
  Q  Q    Q   Q     Q  E E E E Q    Q  Q  Q     Q
|-3--3----3---3--||-0--0-0-0-0-0--|-0--0--0-----0--||
|-5--5----5---5--||-1--1-1-1-1-1--|-1--1--1-----1--||
|-4--4----4---4--||-3--3-3-3-3-3--|-3--3--3-----3--||
|-5--5----5---5--||-2--2-2-2-2-2--|-2--2--2-----2--||
|-5--5----5---5--||-3--3-3-3-3-3--|-3--3--3-----3--||
|-3--3----3---3--||---------------|----------------||
|
| Q  E E +H         W               H     E S S Q
|-3----3-(3)-----||---------------|----------------||
|-5----5-(5)-----||---------------|-------------4--||
|-4----4-(4)-----||---------------|-----------5----||
|-5----5-(5)-----||---------------|----------------||
|-5----5-(5)-----||---------------|----------------||
|-3----3-(3)-----||---------------|----------------||


 Guitar Solo
  Q    Q  Q    Q    Q    E E     E  E Q
|-0----0--0----0--|-0----0-0-----0--0-0-----|
|-1----1--1----1--|-1----1-1-----1--1-1-----|
|-3----3--3----3--|-3----3-3-----3--3-3-----|
|-2----2--2----2--|-2----2-2-----2--2-2-----|
|-3----3--3----3--|-3----3-3-----3--3-3-----|
|-----------------|-------------------------|
|
| ~~~~~~~~~~~~
| H       H         Q.     E    +E  E E E
|-----------------|-------------------------|
|-6b8-----6b8-----|-6b8----6pb8r(6)-4---4---|
|-----------------|-------------------5-----|
|-----------------|-------------------------|
|-----------------|-------------------------|
|-----------------|-------------------------|


                                             F7
  Q    Q  Q      Q         Q    E E E E Q    Q  Q  Q  Q    Q  E E E E Q
|-0----0--0------0------|--0----0-0-0-0-0--|-1--1--1--1--|-1--1-1-1-1-1--|
|-1----1--1------1------|--1----1-1-1-1-1--|-1--1--1--1--|-1--1-1-1-1-1--|
|-3----3--3------3------|--3----3-3-3-3-3--|-2--2--2--2--|-2--2-2-2-2-2--|
|-2----2--2------2------|--2----2-2-2-2-2--|-1--1--1--1--|-1--1-1-1-1-1--|
|-3----3--3------3------|--3----3-3-3-3-3--|-3--3--3--3--|-3--3-3-3-3-3--|
|-----------------------|------------------|-1--1--1--1--|-1--1-1-1-1-1--|
|
| ~~~
| H       E    E E E      +E  E E E E E Q    Q  H     q    q  q   E E Q
|-----------------------|------------------|-------------|---------------|
|-6b8-----6pb8-----6pb8r|=(6)-4------------|----1--------|-1--1---1-1----|
|-----------------------|-------5-3--------|----2-----2--|-2--2---2-2----|
|-----------------------|-----------5-3-1--|----------1--|-1--1---1-1----|
|-----------------------|------------------|----------3--|-3--3---3-3----|
|-----------------------|------------------|-------------|---------------|


  C7
  Q    Q    Q    Q    Q    Q       Q    Q
|-0----0----0----0--|-0----0-------0----0---|
|-1----1----1----1--|-1----1-------1----1---|
|-3----3----3----3--|-3----3-------3----3---|
|-2----2----2----2--|-2----2-------2----2---|
|-3----3----3----3--|-3----3-------3----3---|
|-------------------|-----------------------|
|
| Q    Q    H         Q.     E    +E  E E E
|-------------------|-----------------------|
|-6b8--6b8--6b8-----|-6b8----6pb8r(6)-4-----|
|-------------------|-------------------5---|
|-------------------|-----------------------|
|-------------------|-----------------------|
|-------------------|-----------------------|


  G7                   F7
  Q    Q   Q   Q       Q   Q     Q   Q
|-3----3---3---3-----|-1---1-----1---1-----|
|-3----3---3---3-----|-1---1-----1---1-----|
|-4----4---4---4-----|-2---2-----2---2-----|
|-3----3---3---3-----|-1---1-----1---1-----|
|-5----5---5---5-----|-3---3-----3---3-----|
|-3----3---3---3-----|-1---1-----1---1-----|
|
| Q  a Q   Q.     E    Q.     E  E E E E
|--------------------|---------------------|
|------0--(0)----(0)-|-0-----(0)-----------|
|------0--(0)----(0)-|---------------------|
|----3s5---5------0--|-3------1--3-1---3s==|
|--------------------|---------------3-----|
|--------------------|---------------------|


                                         Chorus
  C7                                      Em               Am
  Q    Q   Q   Q      Q  E E +E  E E E    Q  Q    Q   Q    Q  Q    E  E Q
|-0----0---0---0--|---0--0-0-(0)-0-0-0-||-0--0----0---0--|-0--0----0--0-0---|
|-1----1---1---1--|---1--1-1-(1)-1-1-1-||-0--0----0---0--|-1--1----1--1-1---|
|-3----3---3---3--|---3--3-3-(3)-3-3-3-||-0--0----0---0--|-2--2----2--2-2---|
|-2----2---2---2--|---2--2-2-(2)-2-2-2-||-2--2----2---2--|-2--2----2--2-2---|
|-3----3---3---3--|---3--3-3-(3)-3-3-3-||-2--2----2---2--|-0--0----0--0-0---|
|-----------------|--------------------||-0--0----0---0--|------------------|
|
| E. Q   S E E Q    a W                   Q  E E +H        Q  E E +H
|-----------------|--------------------||-0----0-(0)-----|-0----0-(0)-------|
|-----------------|--------------------||-0----0-(0)-----|-1----1-(1)-------|
|----3------------|--------------------||-0----0-(0)-----|-2----2-(2)-------|
|-5------5s3-1----|--------------------||-2----2-(2)-----|-2----2-(2)-------|
|--------------3--|-1h3----------------||-2----2-(2)-----|-0----0-(0)-------|
|-----------------|--------------------||-0----0-(0)-----|------------------|


  C7                           Em               Am
  Gtr II
  Q  Q  Q  Q    E E Q  Q  Q    Q  Q    Q   Q    Q  E E  E  E Q
|-0--0--0--0--|-0-0-0--0--0--|-0--0----0---0--|-0--0-0--0--0-0--|
|-1--1--1--1--|-1-1-1--1--1--|-0--0----0---0--|-1--1-1--1--1-1--|
|-3--3--3--3--|-3-3-3--3--3--|-0--0----0---0--|-2--2-2--2--2-2--|
|-2--2--2--2--|-2-2-2--2--2--|-2--2----2---2--|-2--2-2--2--2-2--|
|-3--3--3--3--|-3-3-3--3--3--|-2--2----2---2--|-0--0-0--0--0-0--|
|-------------|--------------|-0--0----0---0--|-----------------|
|
| W             W              Q  E E +H        Q  E E +H
|-------------|--------------|-0----0-(0)-----|-0----0-(0)------|
|-------------|--------------|-0----0-(0)-----|-1----1-(1)------|
|-------------|--------------|-0----0-(0)-----|-2----2-(2)------|
|-------------|--------------|-2----2-(2)-----|-2----2-(2)------|
|-------------|--------------|-2----2-(2)-----|-0----0-(0)------|
|-------------|--------------|-0----0-(0)-----|-----------------|


                                                        Outro
                  D.S.S. al Dbl. Coda &&
  Dm7               G                    C7              Em             Am
  Q  Q    E  E Q    Q  Q    E  E E E     Q  Q  E E Q     Q  Q    E  E E E
|-1--1----1--1-1--|-3--3----3--3-3-3--||-0--0--0-0-0--||-0--0----0--0-0-0--|
|-1--1----1--1-1--|-5--5----5--5-5-5--||-1--1--1-1-1--||-0--0----0--0-0-1--|
|-2--2----2--2-2--|-4--4----4--4-4-4--||-3--3--3-3-3--||-0--0----0--0-0-2--|
|-0--0----0--0-0--|-5--5----5--5-5-5--||-2--2--2-2-2--||-2--2----2--2-2-2--|
|-----------------|-5--5----5--5-5-5--||-3--3--3-3-3--||-2--2----2--2-2-0--|
|-----------------|-3--3----3--3-3-3--||--------------||-0--0----0--0-0----|
|
| Q  E E +H         Q  E E +Q    Q       W               Q  E E +H
|-1----1-(1)------|-3----3-(3)--------||--------------||-0----0-(0)--------|
|-1----1-(1)------|-5----5-(5)--------||--------------||-0----0-(0)--------|
|-2----2-(2)------|-4----4-(4)--------||--------------||-0----0-(0)--------|
|-0----0-(0)------|-5----5-(5)--------||--------------||-2----2-(2)--------|
|-----------------|-5----5-(5)--------||--------------||-2----2-(2)--------|
|-----------------|-3----3-(3)--------||--------------||-0----0-(0)--------|


                    Em             Am
  Q  Q    E  E Q    Q  Q    E  E E E   +Q   Q    E  E Q
|-0--0----0--0-0--|-0--0----0--0-0-0-|-(0)--0----0--0-0--|
|-1--1----1--1-1--|-0--0----0--0-0-1-|-(1)--1----1--1-1--|
|-2--2----2--2-2--|-0--0----0--0-0-2-|-(2)--2----2--2-2--|
|-2--2----2--2-2--|-2--2----2--2-2-2-|-(2)--2----2--2-2--|
|-0--0----0--0-0--|-2--2----2--2-2-0-|-(0)--0----0--0-0--|
|-----------------|-0--0----0--0-0---|-------------------|
|
| Q  E E +H         Q  E E +H           Q   E E +H
|-0----0-(0)------|-0----0-(0)-------|--0-----0-(0)------|
|-1----1-(1)------|-0----0-(0)-------|--1-----1-(1)------|
|-2----2-(2)------|-0----0-(0)-------|--2-----2-(2)------|
|-2----2-(2)------|-2----2-(2)-------|--2-----2-(2)------|
|-0----0-(0)------|-2----2-(2)-------|--0-----0-(0)------|
|-----------------|-0----0-(0)-------|-------------------|


  Dm7            G6                       C7
  Q  Q    E  E E E   +Q   Q    E  E E E   Q  Q  E E Q     W
|-1--1----1--1-1-3-|-(3)--3----3--3-3-3-|-0--0--0-0-0--|--0-----*|
|-1--1----1--1-1-5-|-(5)--5----5--5-5-5-|-1--1--1-1-1--|--1-----*|
|-2--2----2--2-2-4-|-(4)--4----4--4-4-4-|-3--3--3-3-3--|--3-----*|
|-0--0----0--0-0-5-|-(5)--5----5--5-5-5-|-2--2--2-2-2--|--2-----*|
|----------------5-|-(5)--5----5--5-5-5-|-3--3--3-3-3--|--3-----*|
|----------------3-|-(3)--3----3--3-3-3-|--------------|--------*|
|
| Q  E E +H           Q   E E +Q    Q     W              +W
|-1----1-(1)-------|--3-----3-(3)-------|-3------------|-(3)----*|
|-1----1-(1)-------|--5-----5-(5)-------|-5------------|-(5)----*|
|-2----2-(2)-------|--4-----4-(4)-------|-3------------|-(3)----*|
|-0----0-(0)-------|--5-----5-(5)-------|-5------------|-(5)----*|
|------------------|--5-----5-(5)-------|-3------------|-(3)----*|
|------------------|--3-----3-(3)-------|--------------|--------*|

            
Submit corrections


        Cant Buy Me Love  lessons Hard to play? Try these video lessons and learn fast Cant Buy Me Love  lessons
        
↑ Back to top | Tablatures and chords for acoustic guitar and electric guitar, ukulele, drums are parodies/interpretations of the original songs. You may use it for private study, scholarship, research or language learning purposes only