» » »

Beatles - Cant Buy Me Love Tabs

Artists:  A B C D E F G H I J K L M N O P Q R S T U V W X Y Z # 

Cant Buy Me Love Tabs

(ver. 1) Click to play this song!
Beatles
 Rating:
4/5 (4 votes)

 Cant Buy Me Love  lessons Tabs too difficult? Try these video lessons and learn fast
 
                Tuning:
 
  C7
E|---------------------|-----------------|-------------------------|
B|---------------------|-----------------|-------------------------|
G|---8-10b12~~--10b12~~|--10b12~~--10br12|-8----8--10b12~~-10br12--|
D|10-------------------|-----------------|---10--------------------|
A|---------------------|-----------------|-------------------------|
E|---------------------|-----------------|-------------------------|
 
                     F7                       C7
                     D       U    D D   D U
E|------------------|5-------5--|-5-5---5-5--|-------------------|
B|------------------|4-------4--|-4-4---4-4--|-------------------|
G|10-8--------------|5-------5--|-5-5---5-5--|-10b12~~--10b12~~--|
D|-----10-8---------|3-------3--|-3-3---3-3--|-------------------|
A|----------10-8----|-----------|------------|-------------------|
E|---------------11-|-----------|------------|-------------------|

                        G7          F7 
E|---------------------|-----------|--------------|--------|----------|
B|---------------------|-----------|--------------|--------|----------|
G|10b12~~--10br12-8----|-----------|--------------|----3--3|----------|
D|------------------10-|-----------|--------------|3/5-----|-5\3-1----|
A|---------------------|8/10-8/10--|10\8-6-8-6---6|--------|-------3-3|
E|---------------------|-----------|-----------8--|--------|----------|


            
Submit corrections


        Cant Buy Me Love  lessons Hard to play? Try these video lessons and learn fast Cant Buy Me Love  lessons
        
↑ Back to top | Tablatures and chords for acoustic guitar and electric guitar, ukulele, drums are parodies/interpretations of the original songs. You may use it for private study, scholarship, research or language learning purposes only