» » »

Beatles - Ask Me Why Tabs

Artists:  A B C D E F G H I J K L M N O P Q R S T U V W X Y Z # 

Ask Me Why Tabs

(ver. 3) Click to play this song!
Beatles
 Rating:
4/5 (4 votes)

 Ask Me Why lessons Tabs too difficult? Try these video lessons and learn fast
 
                           E                   G#m                  F#m                  G#7
      0 2 2 1 0 0          4 6 6 4 4 4          2 4 4 2 2 2          4 6 4 5 4 4

          C#m                  Am                   F#                    B
      x 4 6 6 5 4          5 7 7 5 5 x          2 4 4 3 2 2          7 9 9 8 7 7

         E+/C                  A/E               B(type 2)           A/E(type 2)
      x 3 2 1 1 x          x x 2 2 2 x          x 2 4 4 4 x          x 7 7 6 5 5

         G#m7
      4 6 4 4 4 4



Gtr I (E A D G B E) - 'George Harrison - Electric Guitar'
Gtr II (E A D G B E) - 'John Lennon - Acoustic Guitar'



 Intro                               1st, 2nd & 3rd Verses
  Q=120
                                  $
  E                                   G#m             F#m
 4/4
  Gtr II
  Q.     E +Q  Q     E E Q  H         Q  E E +Q  Q    Q  E E +Q  Q
  |      |  |  |     |                |  | |  |  |    |  | |  |  |
  /      /  /  /     /                /  / /  /  /    /  / /  /  /

  Gtr I
  E  E E E  Q  E E   E E Q  Q  Q      W               W
|------------------|--------------||----------------|----------------|
|-5----------------|--------0--2--||o-4-------------|-2--------------|
|--------4---------|--------1--2--||--4-------------|-2--------------|
|------------------|-2------2--4--||--6-------------|-4--------------|
|--------------2---|--------------||o---------------|----------------|
|------------------|--------------||----------------|----------------|


  E                                 G#m             F#m
  Q.     E +Q  Q     E E Q  H       Q  E E +Q  Q    Q  E E +Q  Q
  |      |  |  |     |              |  | |  |  |    |  | |  |  |
  /      /  /  /     /              /  / /  /  /    /  / /  /  /

  E  E E E  Q  E E   E E Q  Q  Q    W               W
|------------------|--------------|---------------|----------------|
|-5----------------|--------0--2--|-4-------------|-2--------------|
|--------4---------|--------1--2--|-4-------------|-2--------------|
|------------------|-2------2--4--|-6-------------|-4--------------|
|--------------2---|--------------|---------------|----------------|
|------------------|--------------|---------------|----------------|


  E               G#7               C#m
  Q  E E +Q  Q    Q   E E +Q  Q     Q  E E +Q  Q    E S S E E +E E Q
  |  | |  |  |    |   | |  |  |     |  | |  |  |    | | | | |  | | |
  /  / /  /  /    /   / /  /  /     /  / /  /  /    / / / / /  / / /

  W               H.          E E   W               W
|-0-------------|-2---------------|-4-------------|-4-----------------|
|-0-------------|-1---------------|-5-------------|-5-----------------|
|-1-------------|-1---------------|-6-------------|-6-----------------|
|-2-------------|-1-----------1---|-6-------------|-6-----------------|
|---------------|-----------------|-4-------------|-4-----------------|
|---------------|-----------------|---------------|-------------------|


                     1.
            To Coda
  Am                  F#
  E S S E E +E E Q    E S S E E +E E Q
  | | | | |  | | |    | | | | |  | | |
  / / / / /  / / /    / / / / /  / / /

  W                   W
|-5-----------------|-2-----------------|
|-5-----------------|-2-----------------|
|-5-----------------|-3-----------------|
|-7-----------------|-4-----------------|
|-7-----------------|-4-----------------|
|-5-----------------|-2-----------------|


                   2.
                   $$
  B                E                 E+/C
  E E Q  H         Q.   E +E E Q     Q.   E +Q   Q
  |                |    |  | | |     |    |  |   |
  /                /    /  / / /     /    /  /   /

                                             |--3--|
  E E Q  Q  Q      H.          E E   H       Q Q   Q
|---------------||-----------------|--------------------||
|-4------0--2--o||-0---------------|-1-------1-1---1----||
|-4------1--2---||-1-----------1---|-1-------1-1---1----||
|-4------2--4---||-2-------------2-|-2-------2-2---2----||
|--------------o||-----------------|--------------------||
|---------------||-----------------|--------------------||


 Bridge
  A/E               B(type 2)          E                 E+/C
  Q.   E +Q   Q     Q.   E E E   Q     Q.   E +E E Q     Q.   E +Q   Q
  |    |  |   |     |    | | |   |     |    |  | | |     |    |  |   |
  /    /  /   /     /    / / /   /     /    /  / / /     /    /  /   /

          |--3--|          |---3---|                             |--3--|
  H       Q Q   Q   Q.   E Q   Q   Q   H.          E E   H       Q Q   Q
|-----------------|------------------|-----------------|-----------------|
|-2-------2-2---2-|-4----4-4---4---4-|-0---------------|-1-------1-1---1-|
|-2-------2-2---2-|-4----4-4---4---4-|-1-----------1---|-1-------1-1---1-|
|-2-------2-2---2-|-4----4-4---4---4-|-2-------------2-|-2-------2-2---2-|
|-----------------|------------------|-----------------|-----------------|
|-----------------|------------------|-----------------|-----------------|


  A/E               B(type 2)          E
  Q.   E +Q   Q     Q.   E E E   Q     E E E E H      W
  |    |  |   |     |    | | |   |     | | |
  /    /  /   /     /    / / /   /     / / /

          |--3--|          |---3---|
  H       Q Q   Q   Q.   E Q   Q   Q   E E E E H      Q  Q  Q  Q
|-----------------|------------------|-0-0-0--------|-------------||
|-2-------2-2---2-|-4----4-4---4---4-|-0-0-0--------|-------0--2--||
|-2-------2-2---2-|-4----4-4---4---4-|-1-1-1--------|-------1--2--||
|-2-------2-2---2-|-4----4-4---4---4-|-2-2-2--------|-------2--4--||
|-----------------|------------------|-2-2-2--------|----2--------||
|-----------------|------------------|-0-0-0--------|-------------||


                                                             To Dbl. Coda
  G#m                A/E(type 2)       G#m                A/E(type 2)
  Q  S S E +E E Q    Q  S S E E E Q    Q  S S E +E E Q    Q  S S E E E Q
  |  | | |  | | |    |  | | | | | |    |  | | |  | | |    |  | | | | | |
  /  / / /  / / /    /  / / / / / /    /  / / /  / / /    /  / / / / / /

  W                  W                 W                  W
|------------------|-----------------|------------------|------------------|
|-4----------------|-2---------------|-4----------------|-2----------------|
|-4----------------|-2---------------|-4----------------|-2----------------|
|-6----------------|-2---------------|-6----------------|-2----------------|
|------------------|-----------------|------------------|------------------|
|------------------|-----------------|------------------|------------------|


                      D.S. al Coda &
  E
  E S S E E E E Q     E E Q  H
  | | | | | | | |     |
  / / / / / / / /     /

  E E   E E Q   E E   E E Q  Q  Q
|-------------------|--------------||
|-5-----------------|--------0--2--||
|---------4---------|--------1--2--||
|-------------------|-2------2--4--||
|---------------2---|--------------||
|-------------------|--------------||


  F#                  B(type 2)      G#m
  E S S E E +E E Q    E E Q  H       Q  S S E +E E Q
  | | | | |  | | |    |              |  | | |  | | |
  / / / / /  / / /    /              /  / / /  / / /

  W                   E E Q  Q  Q    W
|-2-----------------|--------------|--------------------|
|-2-----------------|-4------0--2--|-4------------------|
|-3-----------------|-4------1--2--|-4------------------|
|-4-----------------|-4------2--4--|-6------------------|
|-4-----------------|--------------|--------------------|
|-2-----------------|--------------|--------------------|


                                   D.S.S. al Dbl. Coda
  A/E(type 2)       G#m                A/E(type 2)
  Q  S S E E E Q    Q  S S E +E E Q    Q  S S E E E Q
  |  | | | | | |    |  | | |  | | |    |  | | | | | |
  /  / / / / / /    /  / / /  / / /    /  / / / / / /

  W                 W                  W
|-----------------|------------------|-----------------||
|-2---------------|-4----------------|-2---------------||
|-2---------------|-4----------------|-2---------------||
|-2---------------|-6----------------|-2---------------||
|-----------------|------------------|-----------------||
|-----------------|------------------|-----------------||


 Outro
  &&
  E                    A/E(type 2)
  E S S E E +E E Q     E S S E E +E E Q
  | | | | |  | | |     | | | | |  | | |
  / / / / /  / / /     / / / / /  / / /

  E E   E E  Q   E E   W
|--------------------|-------------------|
|-5------------------|-------------------|
|---------4----------|-------------------|
|--------------------|-------------------|
|----------------2---|-------------------|
|--------------------|-------------------|


  E                    A/E(type 2)         G#m7
  E S S E E +E E Q     E S S E E +E E Q    W
  | | | | |  | | |     | | | | |  | | |    |
  / / / / /  / / /     / / / / /  / / /    /

  E E   E E  Q   E E   W                   E E E E E E q
|--------------------|-------------------|-----------------*|
|--------------------|-------------------|-7-4-4-----------*|
|---------4----------|-------------------|-------4-4-------*|
|-2------------------|-------------------|-----------6-6---*|
|----------------2---|-------------------|-----------6-6---*|
|--------------------|-------------------|-----------------*|
            
Submit corrections


        Ask Me Why lessons Hard to play? Try these video lessons and learn fast Ask Me Why lessons
        
↑ Back to top | Tablatures and chords for acoustic guitar and electric guitar, ukulele, drums are parodies/interpretations of the original songs. You may use it for private study, scholarship, research or language learning purposes only