» » »

Beatles - Ask Me Why Bass

Artists:  A B C D E F G H I J K L M N O P Q R S T U V W X Y Z # 

Ask Me Why Bass

(ver. 2) Click to play this song!
Beatles
 Rating:
4/5 (4 votes)

 Ask Me Why lessons Tabs too difficult? Try these video lessons and learn fast
 
                Gtr I (E A D G) - 'Paul McCartney - Bass'


 Intro                             1st, 2nd & 3rd Verses
  Q=120
                                $
 4/4
  Gtr I
  Q.   E +Q   Q    E E Q  Q  Q      Q.   E Q  Q    Q.   E Q  Q
|------4-(4)-----|--------------||--1----1----1--|-------------|
|-2--------------|-2------2--4--||o--------1-----|-4----4------|
|-------------2--|--------------||o--------------|--------4--2-|
|----------------|--------------||---------------|-------------|


  Q.   E Q  Q    E E Q  Q  Q    Q.   E Q  Q    Q.   E Q  Q
|------4-4-----|--------------|-1----1----1--|-------------|
|-2------------|-2------2--4--|--------1-----|-4----4------|
|-----------2--|--------------|--------------|--------4--2-|
|--------------|--------------|--------------|-------------|


  Q.   E +E  E E E   Q.   E Q  Q    Q.   E Q  Q    Q.   E Q  Q
|------4-(4)-----0-|-1----1-------|--------------|-------------|
|-2----------2-4---|--------1--0--|------6-6-----|------6-6----|
|------------------|--------------|-4------------|-4---------4-|
|------------------|--------------|-----------4--|-------------|


                1.
       To Coda
  Q.   E Q  Q    Q.   E +Q   Q    E E Q  Q  Q
|-2----2----2--|----------------|---------------||
|--------2-----|-4----4-(4)--4--|--------2--4--o||
|--------------|----------------|-2------------o||
|--------------|----------------|---------------||


 2.
  $$
  Q.   E +Q   Q    Q.   E Q  Q
|------4-(4)-----|--------5------||
|-2--------------|-2----2----2---||
|-------------2--|---------------||
|----------------|---------------||


 Bridge
  Q  Q  Q  Q    Q  Q  Q  Q    Q  Q  Q  E E   Q  Q  Q  Q
|-2-----------|-4--2--1-----|-------4--4---|-------5----|
|----4--2-----|----------4--|-2--2-------2-|-2--2-----2-|
|----------4--|-------------|--------------|------------|
|-------------|-------------|--------------|------------|


  Q  Q  Q  Q    Q  Q  Q  Q    E E E E H      Q  Q  Q  Q
|-2-----------|-4--2--1-----|--------------|------------||
|----4--2-----|----------4--|-2-2-2--------|-------2--4-||
|----------4--|-------------|--------------|----2-------||
|-------------|-------------|--------------|------------||


                                             To Dbl. Coda
  Q.   E Q  Q    Q.   E Q  Q    Q.   E Q  Q    Q.   E Q  Q
|-1----1----1--|-2----2-------|-1----1----1--|-2----2------|
|--------1-----|-----------2--|--------1-----|-----------1-|
|--------------|--------4-----|--------------|--------4----|
|--------------|--------------|--------------|-------------|


                 D.S. al Coda &
  Q.   E Q  Q    E E Q  Q  Q     Q.   E +Q   Q    E E Q  Q  Q    Q.   E Q  Q
|--------4-----|--------------||----------------|--------------|-1----1----1---|
|-2----2-------|-2------2--4--||-4----4-(4)--4--|--------2--4--|--------1------|
|-----------2--|--------------||----------------|-2------------|---------------|
|--------------|--------------||----------------|--------------|---------------|


                                               Outro
                         D.S.S. al Dbl. Coda &&
  Q.   E Q  Q    Q.   E Q  Q    Q.   E Q  Q     Q.   E Q  Q
|-2----2-------|-1----1----1--|-2----2-------||--------9----|
|-----------2--|--------1-----|-----------1--||------9----9-|
|--------4-----|--------------|--------4-----||-7-----------|
|--------------|--------------|--------------||-------------|


  Q.   E Q  Q    Q.   E Q  Q    Q.   E Q  Q    W
|--------9-----|--------9-----|--------9-----|------*|
|------9----9--|------9----9--|------9----9--|------*|
|-7------------|-7------------|-7------------|------*|
|--------------|--------------|--------------|-4----*|

            
Submit corrections


        Ask Me Why lessons Hard to play? Try these video lessons and learn fast Ask Me Why lessons
        
↑ Back to top | Tablatures and chords for acoustic guitar and electric guitar, ukulele, drums are parodies/interpretations of the original songs. You may use it for private study, scholarship, research or language learning purposes only