» » »

Beatles - All Ive Got To Do Tabs

Artists:  A B C D E F G H I J K L M N O P Q R S T U V W X Y Z # 

All Ive Got To Do Tabs

(ver. 3) Click to play this song!
Beatles
 Rating:
4/5 (4 votes)

 All Ive Got To Do  lessons Tabs too difficult? Try these video lessons and learn fast
 
                          F#m                  Am                  E/Ab                  C#m
      x x 4 2 2 2          x x 7 5 5 5          x x 6 4 5 4          x 4 6 6 5 4

           E                    A
      x x 2 1 0 0          x 0 2 2 2 0



Gtr I (E A D G B E) - 'John Lennon - Acoustic Guitar'
Gtr II (E A D G B E) - 'George Harrison - Electric Guitar '


 Intro                     1st Verse
  Q=135
  Eadd9add11                C#m
 4/4
  Gtr II
   W          +W            Q  E E E E E E   Q  E E E E E E
|-^5--------|-(5)--------||----4-----4---4-|----4-----4---4-|
|-^7--------|-(7)--------||----5-----5---5-|----5-----5---5-|
|-^5--------|-(5)--------||----6-----6---6-|----6-----6---6-|
|-^6--------|-(6)--------||----6-----6---6-|----6-----6---6-|
|-^7--------|-(7)--------||----4-----4---4-|----4-----4---4-|
|-----------|------------||----------------|----------------|


  E                                 C#m
  Q  E E E E E E   Q  E E E E E E   Q  E E E E E E   Q  E E E E E E
|----------------|----------------|----4-----4---4-|----4-----4---4--|
|----9-----9---9-|----9-----9---9-|----5-----5---5-|----5-----5---5--|
|----9-----9---9-|----9-----9---9-|----6-----6---6-|----6-----6---6--|
|----9-----9---9-|----9-----9---9-|----6-----6---6-|----6-----6---6--|
|----7-----7---7-|----7-----7---7-|----4-----4---4-|----4-----4---4--|
|----------------|----------------|----------------|-----------------|


  F#m                                 Am                E/Ab
  Gtr I
  Q  E E +E E E E   Q  E E +E E E E   Q  E E +E E E E   Q  E E +E E E E
  |  | |  | | | |   |  | |  | | | |   |  | |  | | | |   |  | |  | | | |
  /  / /  / / / /   /  / /  / / / /   /  / /  / / / /   /  / /  / / / /

  Gtr II
  Q  E E  E E E E   Q  E E  E E E E   Q  E E  E E E E   Q  E E  E E E E
|----2------2---2-|----2------2---2-|----5------5---5-|------------------|
|----2------2---2-|----2------2---2-|----5------5---5-|----9------9---9--|
|----2------2---2-|----2------2---2-|----5------5---5-|----9------9---9--|
|----4------4---4-|----4------4---4-|----7------7---7-|----9------9---9--|
|-----------------|-----------------|-----------------|----7------7---7--|
|-----------------|-----------------|-----------------|------------------|


                2nd & 3rd Verses
              $
                 C#m                                 E
  E E Q  H       Q  E E +E E E E   Q  E E +E E E E   Q  E E +E E E E
  |              |  | |  | | | |   |  | |  | | | |   |  | |  | | | |
  /              /  / /  / / / /   /  / /  / / / /   /  / /  / / / /

  E E Q  H       Q  E E  E E E E   Q  E E  E E E E   Q  E E  E E E E
|-------------||----4------4---4-|----4------4---4-|------------------|
|-9-----------||----5------5---5-|----5------5---5-|----9------9---9--|
|-9-----------||----6------6---6-|----6------6---6-|----9------9---9--|
|-9-----------||----6------6---6-|----6------6---6-|----9------9---9--|
|-7-----------||----4------4---4-|----4------4---4-|----7------7---7--|
|-------------||-----------------|-----------------|------------------|


  E                 C#m                                 F#m
  Q  E E +E E E E   Q  E E +E E E E   Q  E E +E E E E   Q  E E +E E E E
  |  | |  | | | |   |  | |  | | | |   |  | |  | | | |   |  | |  | | | |
  /  / /  / / / /   /  / /  / / / /   /  / /  / / / /   /  / /  / / / /

  Q  E E  E E E E   Q  E E  E E E E   Q  E E  E E E E   Q  E E  E E E E
|-----------------|----4------4---4-|----4------4---4-|----2------2---2--|
|----9------9---9-|----5------5---5-|----5------5---5-|----2------2---2--|
|----9------9---9-|----6------6---6-|----6------6---6-|----2------2---2--|
|----9------9---9-|----6------6---6-|----6------6---6-|----4------4---4--|
|----7------7---7-|----4------4---4-|----4------4---4-|------------------|
|-----------------|-----------------|-----------------|------------------|


                    Am                E/Ab
  Q  E E +E E E E   Q  E E +E E E E   Q  E E +E E E E   Q  E E +E E E E
  |  | |  | | | |   |  | |  | | | |   |  | |  | | | |   |  | |  | | | |
  /  / /  / / / /   /  / /  / / / /   /  / /  / / / /   /  / /  / / / /

  Q  E E  E E E E   Q  E E  E E E E   Q  E E  E E E E   Q  E E  E E E E
|----2------2---2-|----5------5---5-|-----------------|------------------||
|----2------2---2-|----5------5---5-|----9------9---9-|----9------9---9--||
|----2------2---2-|----5------5---5-|----9------9---9-|----9------9---9--||
|----4------4---4-|----7------7---7-|----9------9---9-|----9------9---9--||
|-----------------|-----------------|----7------7---7-|----7------7---7--||
|-----------------|-----------------|-----------------|------------------||


 Bridge
  A                                   C#m
  Q  E E +E E E E   Q  E E +E E E E   Q  E E +E E E E   Q  E E +E E E E
  |  | |  | | | |   |  | |  | | | |   |  | |  | | | |   |  | |  | | | |
  /  / /  / / / /   /  / /  / / / /   /  / /  / / / /   /  / /  / / / /

  Q  E E  E E E E   Q  E E  E E E E   Q  E E  E E E E   Q  E E  E E E E
|----5------5---5-|----5------5---5-|----4------4---4-|----4------4---4--|
|----5------5---5-|----5------5---5-|----5------5---5-|----5------5---5--|
|----6------6---6-|----6------6---6-|----6------6---6-|----6------6---6--|
|----7------7---7-|----7------7---7-|----6------6---6-|----6------6---6--|
|-----------------|-----------------|----4------4---4-|----4------4---4--|
|-----------------|-----------------|-----------------|------------------|


                                             To Coda
  A                 E                 A                 E
  Q  E E +E E E E   Q  E E +E E E E   Q  E E +E E E E   Q  E E +E E E E
  |  | |  | | | |   |  | |  | | | |   |  | |  | | | |   |  | |  | | | |
  /  / /  / / / /   /  / /  / / / /   /  / /  / / / /   /  / /  / / / /

  Q  E E  E E E E   Q  E E  E E E E   Q  E E  E E E E   Q  E E  E E E E
|----5------5---5-|-----------------|----5------5---5-|------------------|
|----5------5---5-|----9------9---9-|----5------5---5-|----9------9---9--|
|----6------6---6-|----9------9---9-|----6------6---6-|----9------9---9--|
|----7------7---7-|----9------9---9-|----7------7---7-|----9------9---9--|
|-----------------|----7------7---7-|-----------------|----7------7---7--|
|-----------------|-----------------|-----------------|------------------|


                Outro
D.S. al Coda  &
                 E                 A
  E E Q  H       Q  E E +E E E E   Q  E E +E E E E
  |              |  | |  | | | |   |  | |  | | | |
  /              /  / /  / / / /   /  / /  / / / /

  E E Q  H       Q  E E  E E E E   Q  E E  E E E E
|-------------||-----------------|----5------5---5-|
|-9-----------||----9------9---9-|----5------5---5-|
|-9-----------||----9------9---9-|----6------6---6-|
|-9-----------||----9------9---9-|----7------7---7-|
|-7-----------||----7------7---7-|-----------------|
|-------------||-----------------|-----------------|


  E                               C#m
  Q  E E +E E E E   E E Q  H      Q  E E +E E E E
  |  | |  | | | |   |             |  | |  | | | |
  /  / /  / / / /   /             /  / /  / / / /

  Q  E E  E E E E   E E Q  H      Q  E E  E E E E
|-----------------|-------------|----4------4---4-|
|----9------9---9-|-9-----------|----5------5---5-|
|----9------9---9-|-9-----------|----6------6---6-|
|----9------9---9-|-9-----------|----6------6---6-|
|----7------7---7-|-7-----------|----4------4---4-|
|-----------------|-------------|-----------------|


                    E                                   C#m
  Q  E E +E E E E   Q  E E +E E E E   Q  E E +E E E E   Q  E E +E E E E
  |  | |  | | | |   |  | |  | | | |   |  | |  | | | |   |  | |  | | | |
  /  / /  / / / /   /  / /  / / / /   /  / /  / / / /   /  / /  / / / /

  Q  E E  E E E E   Q  E E  E E E E   Q  E E  E E E E   Q  E E  E E E E
|----4------4---4-|-----------------|-----------------|----4------4---4--*|
|----5------5---5-|----9------9---9-|----9------9---9-|----5------5---5--*|
|----6------6---6-|----9------9---9-|----9------9---9-|----6------6---6--*|
|----6------6---6-|----9------9---9-|----9------9---9-|----6------6---6--*|
|----4------4---4-|----7------7---7-|----7------7---7-|----4------4---4--*|
|-----------------|-----------------|-----------------|------------------*|
            
Submit corrections


        All Ive Got To Do  lessons Hard to play? Try these video lessons and learn fast All Ive Got To Do  lessons
        
↑ Back to top | Tablatures and chords for acoustic guitar and electric guitar, ukulele, drums are parodies/interpretations of the original songs. You may use it for private study, scholarship, research or language learning purposes only