» » »

Beatles - All Ive Got To Do Bass

Artists:  A B C D E F G H I J K L M N O P Q R S T U V W X Y Z # 

All Ive Got To Do Bass

(ver. 2) Click to play this song!
Beatles
 Rating:
4/5 (4 votes)

 All Ive Got To Do  lessons Tabs too difficult? Try these video lessons and learn fast
 
                Gtr I (E A D G) - 'Paul McCartney - Bass'


 Intro                      1st, 2nd & 3rd Verses
  Q=135
                         $
 4/4
  Gtr I
  W          Q  E H    E     Q.   E Q  E E   Q.   E Q  E E
|----------|-------------||----------------|---------------|
|----------|-------------||o-6----6--------|-6----6--------|
|----------|-----------x-||o-4----4------x-|-4----4------x-|
|----------|-------------||----------------|---------------|


  Q.   E Q  E E   Q.   E Q  E E   Q.   E Q  E E   Q.   E H
|---------------|---------------|---------------|-------------|
|-9----9--------|-9----9--------|-6----6--------|-6----6------|
|-7----7--------|-7----7--------|-4----4------x-|-4----4------|
|-------------x-|-------------x-|---------------|-------------|


                                                          1.
  Q  Q  Q  Q    H    Q  Q    H    Q  Q    Q.   E +Q   Q    Q  Q  Q  E E
|-------------|------------|------------|----------------|-----------------||
|-4--4--------|-4-------4--|------------|-2--------------|-2--------------o||
|-------4--4--|------4-----|-0----0--3--|------2-(2)--2--|------------2---o||
|-------------|------------|------------|----------------|-----------------||


                Bridge
  2.,D.S.
  H.      E E    H    Q  Q
|-------------||------------|
|-2-------2---||---------2--|
|-----------2-||-0----4-----|
|-------------||------------|


  H    Q  Q    H    Q.   E   Q.   E Q  E E
|------------|-------------|---------------|
|---------2--|-------------|---------------|
|-0----4-----|-4-----------|-4---------4---|
|------------|------4----4-|------4-4----4-|


                                          To Coda
  Q.   E Q  Q    Q.   E +Q   Q     Q.   E +Q   E E   Q.   E Q  E E
|--------------|-----------------|-----------------|----------------|
|--------------|-----------------|-------------2---|-2-----------1--|
|-----------4--|-7----4-(4)--7\--|-0----4-(4)----4-|------2-2--2----|
|-5----5-5-----|-----------------|-----------------|----------------|


                   Outro
    D.S. al Coda &
  E E Q  Q  E E     Q.   E +Q   Q    Q.   E +Q   Q
|----------------||----------------|----------------|
|-2--------------||-2-----------2--|-------------2--|
|-------------2--||------2-(2)-----|-0----4-(4)-----|
|----------------||----------------|----------------|


  Q.   E +Q   Q    E E Q  Q  E E   Q.   E +Q   E E
|----------------|---------------|-----------------|
|-2--------------|-2-----------2-|-6----6-(6)------|
|------2-(2)--2--|---------------|-4----4-(4)----x-|
|----------------|---------------|-----------------|


  Q.   E +Q   E S S   Q.   E +Q   E E   Q.   E +Q   E E   Q.   E H
|-------------------|-----------------|-----------------|-------------*|
|-6----6-(6)--------|-9----9-(9)------|-9----9-(9)------|-6----6------*|
|-4----4-(4)----x---|-7----7-(7)------|-7----7-(7)------|-4----4------*|
|-------------------|---------------x-|---------------x-|-------------*|

            
Submit corrections


        All Ive Got To Do  lessons Hard to play? Try these video lessons and learn fast All Ive Got To Do  lessons
        
↑ Back to top | Tablatures and chords for acoustic guitar and electric guitar, ukulele, drums are parodies/interpretations of the original songs. You may use it for private study, scholarship, research or language learning purposes only