Home » B » Beastie Boys »

Beastie Boys - The Biz Vs The Nuge Tabs

Artists:  A B C D E F G H I J K L M N O P Q R S T U V W X Y Z # 

The Biz Vs The Nuge Tabs

(ver. 1) Click to play this song!
Beastie Boys
e:--------------------------------------------------------------------------------------|
B:------------5--(5)--(5)--(5)-----5--3--2--2-------------------------------------------|
G:--------------------------------------------2--------------2-4b--4b--4b--4b-4b--2~~~~-|
D:----------------------------------------------2--(2)--2--4----------------------------|
A:--------------------------------------------------------------------------------------|
E:--------------------------------------------------------------------------------------|
 so there.... 
e:--------------------------------------------------------------------------------------|
B:------------5--(5)--(5)--(5)-----5--3--2--2-------------------------------------------|
G:--------------------------------------------2--------------2-4b--4b--4b--4b-4b--2~~~~-|
D:-2--2-----------------------------------------2--(2)--2--4----------------------------|
A:--------------------------------------------------------------------------------------|
E:--------------------------------------------------------------------------------------|

            
Submit corrections

↑ Back to top | Tablatures and chords for acoustic guitar and electric guitar, ukulele, drums are parodies/interpretations of the original songs. You may use it for private study, scholarship, research or language learning purposes only