Home » B » Beastie Boys »

Beastie Boys - Son Of Neckbone Bass

Artists:  A B C D E F G H I J K L M N O P Q R S T U V W X Y Z # 

Son Of Neckbone Bass

(ver. 1) Click to play this song!
Beastie Boys
G|-------------------|
D|-6---5----4---3----|
A|-------------------| x2
E|-------------------|
 
G|-----------------------------------------------------------------------4--5-------------|
D|---------------------------------5-------3-----------------------5--7----------3h5------|
A|-3--3--3--5------3-5-----3--4--5---5--5-----5-3--3--3--5------3---------------------3---|
E|----------------------3---------------------------------------------------------------3-|
 
G|------------------------3--2tr3-5----------------------------------------------------|
D|-----------------0--3h5--------------3h5-------3-------------------------------------|
A|-3--3--3--5------------------------------5--5-----3--3--3-3h5--------x-x-------5-----|
E|----------------------------------3---------------------------3-------------3-----3--|
 
G|------------------------------------------------------------------------------|
D|-----------------------3h5----3h5------------------------5-3---------5--3-----|
A|-3--3--3--5--x-x--x-x------5------3--3--3--3--5---x-x--x-----5--3--5-------5--|
E|------------------------------------------------------------------------------|
 
G|-------------------3h5--3h5------------------------------------------------------|
D|-----------------5-----------3h5--3h5--------------------------------------------|
A|-3--3--3--5-------------------------------------------3--3--------------------3--|
E|---------------------------------------3--5h6-5h6--3--------3------1/3--5--6-----|
 
G|-------------------|
D|-6---5----4---3----|
A|-------------------| x2
E|-------------------|
 
G|---------------3--3--5-----------------------------------------------------|
D|------------------------3h5--3--3---------------------------------3--5-----|
A|-3--3--3--5---------------------------3--3--3--5------------3--5--------3--|
E|-----------------------------------3------------------3--6-----------------|
 
G|-----------------3h5--3h5-----------------------------------------------|
D|--------------------------5-3h5--3h5---------------------------------5--|
A|-3--3--3--5---------------------------3--5-----3--5---------------5-----|
E|--------------------------------------------3--------6--3---------------|
 
G|---|
D|-6-|
A|---|
E|---|
 
Short percussion interlude
 
G|-------------------|
D|-6---5----4---3----|
A|-------------------| x2
E|-------------------|
 
G|--------------------------------------------------------3h5--3h5--------------------|
D|---------------------------------------3-------------------------5-3h5--3h5---------|
A|-3--3--3--5----3--5--------3--5--3--5-----3--3--3--5-------------------------3-5----|
E|---------------------3--6--------------------------------------------------------3--|
 
G|-------------------------------------5--4--3-------------------------------3/5--3--------|
D|-------------------3--5------------------------------------------------------------3-----|
A|-3--5--------------------5---------------------------------------------------------------|
E|-------6--3-----------------3-----------------3--------1--1--1--3---------------------3--|
 
G|-3--5--5---------------------------------3tr5-|
D|----------5--5--3-----------------------------|
A|----------------------------------------------|
E|-------------------3--------3----1--3--3------|
            
Submit corrections

↑ Back to top | Tablatures and chords for acoustic guitar and electric guitar, ukulele, drums are parodies/interpretations of the original songs. You may use it for private study, scholarship, research or language learning purposes only