Home » B » Beastie Boys »

Beastie Boys - Soba Violence Tabs

Artists:  A B C D E F G H I J K L M N O P Q R S T U V W X Y Z # 

Soba Violence Tabs

(ver. 1) Click to play this song!
Beastie Boys
Tuning: Standard

Part A
e|-----------------|
B|-----------------|
G|-----------------|
D|-2---0---2---X---|
A|-2---2---2---X---|
E|-0---3---0---X---|
   Em  G   Em



Part B
e|----------------------------------------------|
B|----------------------------------------------|
G|----------------------------------------------|
D|-5---7---9---X-9-9-9-----5---7---9---X-9-9-9--|
A|-5---7---9---X-9-9-9-----5---7---9---X-9-9-9--|
E|-3---5---7---X-7-7-7-----3---5---7---X-7-7-7--|
   G   A   B     B         G   A   B     B 



Part C
e|----------------------------------------------|
B|----------------------------------------------|
G|----------------------------------------------|
D|-2---2---2---X-2-2-2-----2---2---2---X-2-2-2--|
A|-2---2---2---X-2-2-2-----2---2---2---X-2-2-2--|
E|-0---3---0---X-0-0-0-----0---3---0---X-0-0-0--|
   Em  G   Em    Em        Em  G   Em    Em


Part A - 4x
Part B - 2x
Part C - 2x
Part B - 2x
Part A - 4x
Part B - 2x
Part C - 2x
Part B - 2x
Part A - 4x
Part B - 2x
Part C - 2x
Part B - 2x
Part A - 2x
            
Submit corrections

↑ Back to top | Tablatures and chords for acoustic guitar and electric guitar, ukulele, drums are parodies/interpretations of the original songs. You may use it for private study, scholarship, research or language learning purposes only