Home » B » Beastie Boys »

Beastie Boys - Nervous Assistant Tabs

Artists:  A B C D E F G H I J K L M N O P Q R S T U V W X Y Z # 

Nervous Assistant Tabs

(ver. 1) Click to play this song!
Beastie Boys
e|---------------|
B|---------------|
G|---------------|
D|------7-7-6-66-|
A|-bass-5-5-4-44-|
E|---------------|

e|----------------------------------|
B|----------------------------------|
G|----------------------------------|
D|-------------------------7-7-6-66-| x3
A|-7-7-9-9-7-7-9-9-7-7-9-9-5-5-4-44-|
E|-5-5-7-7-5-5-7-7-5-5-7-7----------|

e|-------------------------------------------------------------------------------|
B|-------------------------------------------------------------------------------|
G|-------------------------------------------------------------------------------|
D|-------------------------------------------------------------------------------|
A|-10-10-10-10-10-10-10-10-10-10-10-10-10-10-10-10-9-9-9-9-9-9-9-9-8-8-8-8-7--4--|
E|-8--8--8--8--8--8--8--8--8--8--8--8--8--8--8--8--7-7-7-7-7-7-7-7-6-6-6-6-5--2--|

e|----------------------------------|
B|----------------------------------|
G|----------------------------------|
D|-------------------------7-7-6-66-| x4
A|-7-7-9-9-7-7-9-9-7-7-9-9-5-5-4-44-|
E|-5-5-7-7-5-5-7-7-5-5-7-7----------|

e|---------------------------------------------------------|
B|---------------------------------------------------------|
G|---------------------------------------------------------|
D|---------------------------------------------------------|
A|-10-10-101010-10-10-10-10-101010-10-10-9-9-999-9-9-7--4--|
E|-8--8--8-8-8--8--8--8--8--8-8-8--8--8--7-7-777-7-7-5--2--|

e|---------|
B|---------|
G|---------|
D|---------| x8
A|-5-5-7-7-|
E|-3-3-5-5-|

            
Submit corrections

↑ Back to top | Tablatures and chords for acoustic guitar and electric guitar, ukulele, drums are parodies/interpretations of the original songs. You may use it for private study, scholarship, research or language learning purposes only