Home » B » Beastie Boys »

Beastie Boys - Deal With It Tabs

Artists:  A B C D E F G H I J K L M N O P Q R S T U V W X Y Z # 

Deal With It Tabs

(ver. 1) Click to play this song!
Beastie Boys
e|---------------------------------------|
B|---------------------------------------|
G|-14^-----------------------------------|
D|---------------------------------------|
A|---------------------------------------|
E|---------------------------------------|

Very gradually keep bending up this note

e|---------------------------|
B|---------------------------|
G|---------------------------|
D|-3------------2------------|
A|-3-(Ring out)-2-(Ring out)-|
E|-1------------0------------|

e|---------------------------------------|
B|---------------------------------------|
G|-8--8-888-8-8-8-8-8-8------------------|
D|-8--8-888-8-8-8-8-8-8-4-4-444-5-55-555-| x4
A|-6--6-666-6-6-6-6-6-6-4-4-444-5-55-555-|
E|----------------------2-2-222-3-33-333-|

e|--------------------------------------------------|
B|--------------------------------------------------|
G|-----8-8-------8-8--------------------------------|
D|-9-9-8-8-9-9-9-8-8-9-11-11-111111-10-10-10-101010-| x3
A|-9-9-6-6-9-9-9-6-6-9-11-11-111111-10-10-10-101010-|
E|-7-7-----7-7-7-----7-9--9--9-9-9--8--8--8--8-8-8--|

e|---------------------|------- x2 -------------------|------------------------------|
B|---------------------|------------------------------|------------------------------|
G|-----8-8-------8-8---|-11-11-111111-10-10-10-101010-|-9-9-999-8-8-8-888-9-9-999-11-|
D|-9-9-8-8-9-9-9-8-8-9-|-11-11-111111-10-10-10-101010-|-9-9-999-8-8-8-888-9-9-999-11-| x1
A|-9-9-6-6-9-9-9-6-6-9-|-9--9--9-9-9--8--8--8--8-8-8--|-7-7-777-6-6-6-666-7-7-777-9--|
E|-7-7-----7-7-7-----7-|------------------------------|------------------------------|

Repeat all sections after ring out again.

e|---------------------------------------------------------------|
B|---------------------------------------------------------------|
G|---------------------------1/2/3/4/etc/12-noise-12-14-12-14-12-|
D|-2------------2------------------------------------------------|
A|-2-(Ring out)-2-(Ring out)-------------------------------------|
E|-0------------0------------------------------------------------|

solo

e|-----------------------------------------------------------------------------------------------------------|
B|-----------------------------------------------------------------------------------12^--12^--12^--12^--12^-|
G|-15^--15^-16p14-12----12-12PH----12-14-14----------------------------12----12-15^--15^--15^--15^--15^--15^-|
D|-------------------14---------14----------12-14--------12---12h13h14----14---------------------------------|
A|-------------------------------------------------12-14-----------------------------------------------------|
E|-----------------------------------------------------------------------------------------------------------|
            
Submit corrections

↑ Back to top | Tablatures and chords for acoustic guitar and electric guitar, ukulele, drums are parodies/interpretations of the original songs. You may use it for private study, scholarship, research or language learning purposes only