» » »

Bad Dogs - Hey She Is Just A Hoe Bass

Artists:  A B C D E F G H I J K L M N O P Q R S T U V W X Y Z # 

Hey She Is Just A Hoe Bass

(ver. 1) Click to play this song!
Bad Dogs
 Rating:
4/5 (4 votes)
                Hey she is just a hoe
Intro/Verse
G----------------------------------------------------------|
D----------------------------------------------------------|
A-------------------------55-------------------x8----------|
E-5-555-55-5-5-5--5-5555-------33--------------------------|

Chorus
G-----------------------------------------------------------------|
D-----------------------------------------------------------------|
A----------------3-333-333-33-----------------3333----37533-0-----|
E--5-555-555-55-----------------5-555-555-55----------------------|

Guitar Solo

G---------------------------------------------------------------------------|
D---------------------------------------------------------------------------|
A------------------5555555555555555--------------------55555555-------------|
E-5555555555555555-------------------3333333333333333--------------11111111-|
            
Submit corrections

↑ Back to top | Tablatures and chords for acoustic guitar and electric guitar, ukulele, drums are parodies/interpretations of the original songs. You may use it for private study, scholarship, research or language learning purposes only