Home » B » Bachman Turner Overdrive »

Bachman Turner Overdrive - Roll On Down The Highway Bass

Artists:  A B C D E F G H I J K L M N O P Q R S T U V W X Y Z # 

Roll On Down The Highway Bass

(ver. 3) Click to play this song!
Bachman Turner Overdrive
[Intro]
 
G|--------16-r-----14-r--------------|------------------------------------|
D|r-----------------------------10/--|(12)---------12/--(14)---------14/--|
A|-----------------------------------|------------------------------------|
E|-----------------------------------|------------------------------------|
 
G||-----------16-r-----14-r--------------|------------------------------------||
D||(16)--16-------------------------10/--|(12)---------12/--(14)---------14/--||
A||--------------------------------------|------------------------------------|| x2
E||--------------------------------------|------------------------------------||
 
G|----------16-r-----16---14-r---16-r-|----16-r-----16---14-r--------------|
D|(16)--------------------------------|------------------------------------|
A|------------------------------------|---------------------------12\------|
E|------------------------------------|------------------------------------|
 
[Verse]
 
G||--------------------------------|--------------------------------|
D||--------------------------------|--------------------------------|
A||5---5---5---5---5---5---5---5---|5---5---5---5---5---5---5---5---|
E||--------------------------------|--------------------------------|
 
G|--------------------------------|--------------------------------|
D|--------------------------------|--------------------------------|
A|3---3---3---3---3---3---3---3---|3---3---3---3---3---3---3---3---|
E|--------------------------------|--------------------------------|
 
G|--------------------------------|--------------------------------|
D|--------------------------------|--------------------------------|
A|1---1---1---1---1---1---1---1---|1---1---1---1---1---1---1---1---|
E|--------------------------------|--------------------------------|
 
G|--------------------------------|--------------------------------||
D|--------------------------------|--------------------------------||
A|--------------------------------|--------------------------------|| x2
E|0---0---0---0---0---0---0---0---|0---0---0---0---0---0---0---0---||
 
[Chorus 1]
 
G||--------------------------------|--------------------------------||
D||--------4-------7---4---7---7---|--------------------------------||
A||5-------------------------------|--------2---2---4---4---2---4---|| x2
E||--------------------------------|3---3---------------------------||
 
G|--------------------------------|--------------------------------|
D|--------------------------------|--------------------------------|
A|5---5---------------------------|--------2---2---4---4---2---4---|
E|--------0---0---1---1---2---3---|----3---------------------------|
 
G|--------------------------------|--------------------------------|
D|--------4-------7---4---7-------|--------------------------------|
A|5---------------------------1---|----------------3---------------|
E|--------------------------------|--------------------------------|
 
G|--------------------------------|--------------------------------|
D|--------------------------------|--------------------------------|
A|5-------------------------------|--------------------------------|
E|--------------------------------|--------------------------------|
 
G|7-------------------------------|--------------------------------|
D|--------------------------------|--------------------------------|
A|--------------------------------|--------------------------------|
E|--------------------------------|--------------------------------|
 
[Verse 2]
 
G||--------------------------------|--------------------------------|
D||--------------------------------|--------------------------------|
A||5---5---5---5---5---5---5---5---|5---5---5---5---5---5---5---5---|
E||--------------------------------|--------------------------------|
 
G|--------------------------------|--------------------------------|
D|--------------------------------|--------------------------------|
A|3---3---3---3---3---3---3---3---|3---3---3---3---3---3---3---3---|
E|--------------------------------|--------------------------------|
 
G|--------------------------------|--------------------------------|
D|--------------------------------|--------------------------------|
A|1---1---1---1---1---1---1---1---|1---1---1---1---1---1---1---1---|
E|--------------------------------|--------------------------------|
 
G|--------------------------------|--------------------------------||
D|--------------------------------|--------------------------------||
A|--------------------------------|--------------------------------|| x2
E|0---0---0---0---0---0---0---0---|0---0---0---0---0---0---0---0---||
 
[Chorus 2]
 
G||--------------------------------|--------------------------------||
D||--------4-------7---4---7---7---|--------------------------------||
A||5-------------------------------|--------2---2---4---4---2---4---|| x2
E||--------------------------------|3---3---------------------------||
 
G|--------------------------------|--------------------------------|
D|--------------------------------|--------------------------------|
A|5---5---------------------------|--------2---2---4---4---2---4---|
E|--------0---0---1---1---2---3---|----3---------------------------|
 
G|--------------------------------|---------------------------------|
D|--------4-------7---4---7-------|---------------------------------|
A|5---------------------------1---|----------------3-----------14/--|
E|--------------------------------|---------------------------------|
 
G||-----------16-r--16-14-r--------------|------------------------------------||
D||(16)--16-------------------------10/--|(12)---------12/--(14)---------14/--||
A||--------------------------------------|------------------------------------|| x2
E||--------------------------------------|------------------------------------||
 
G|-----------16-r--16-14-r--------------|-----------------------------------|
D|(16)--16-------------------------10/--|(12)---------12/--(14)-------------|
A|--------------------------------------|-----------------------------------|
E|--------------------------------------|-----------------------------------|
 
[Solo]
 
G||--------------------------------|--------------------------------|
D||--------------------------------|--------------------------------|
A||5---5---5---5---5---5---5---5---|5---5---5---5---5---5---5---5---|
E||--------------------------------|--------------------------------|
 
G|--------------------------------|--------------------------------|
D|--------------------------------|--------------------------------|
A|3---3---3---3---3---3---3---3---|3---3---3---3---3---3---3---3---|
E|--------------------------------|--------------------------------|
 
G|--------------------------------|--------------------------------|
D|--------------------------------|--------------------------------|
A|1---1---1---1---1---1---1---1---|1---1---1---1---1---1---1---1---|
E|--------------------------------|--------------------------------|
 
G|--------------------------------|--------------------------------||
D|--------------------------------|--------------------------------||
A|--------------------------------|--------------------------------|| x5
E|0---0---0---0---0---0---0---0---|0---0---0---0---0---0---0---0---||
 
[Chorus 3]
 
G||--------------------------------|--------------------------------||
D||--------4-------7---4---7---7---|--------------------------------||
A||5-------------------------------|--------2---2---4---4---2---4---|| x2
E||--------------------------------|3---3---------------------------||
 
G|--------------------------------|--------------------------------|
D|--------------------------------|--------------------------------|
A|5---5---------------------------|--------2---2---4---4---2---4---|
E|--------0---0---1---1---2---3---|----3---------------------------|
 
G|--------------------------------|--------------------------------|
D|--------4-------7---4---7-------|--------------------------------|
A|5---------------------------1---|----------------3---------------|
E|--------------------------------|--------------------------------|
 
G|--------------------------------|--------------------------------|
D|--------------------------------|--------------------------------|
A|5-------------------------------|--------------------------------|
E|--------------------------------|--------------------------------|
 
G||--------------------------------|--------------------------------||
D||--------4-------7---4---7---7---|--------------------------------||
A||5-------------------------------|--------2---2---4---4---2---4---|| x2
E||--------------------------------|3---3---------------------------||
 
G|--------------------------------|--------------------------------|
D|--------------------------------|--------------------------------|
A|5---5---------------------------|--------2---2---4---4---2---4---|
E|--------0---0---1---1---2---3---|----3---------------------------|
 
G|--------------------------------|--------------------------------|
D|--------4-------7---4---7-------|--------------------------------|
A|5---------------------------1---|----------------3---------------|
E|--------------------------------|--------------------------------|
 
G|--------------------------------|--------------------------------|
D|--------------------------------|--------------------------------|
A|5-------------------------------|--------------------------------|
E|--------------------------------|--------------------------------|
 
[Outro]
 
G|--------------------------------|--------------------------------|
D|--------------------------------|--------------------------------|
A|r-------------------------------|--------------------------------|
E|--------------------------------|--------------------------------|
 
G||--------------------------------|--------------------------------||
D||--------4-------7---4---7---7---|--------------------------------||
A||5-------------------------------|--------2---2---4---4---2---4---|| x2
E||--------------------------------|3---3---------------------------||
 
G|--------------------------------|--------------------------------|
D|--------------------------------|--------------------------------|
A|5---5---------------------------|--------2---2---4---4---2---4---|
E|--------0---0---1---1---2---3---|----3---------------------------|
 
G|--------------------------------|--------------------------------|
D|--------4-------7---4---7-------|--------------------------------|
A|5---------------------------1---|----------------3---------------|
E|--------------------------------|--------------------------------|
 
G|--------------------------------|--------------------------------|
D|--------------------------------|--------------------------------|
A|5-------------------------------|--------------------------------|
E|--------------------------------|--------------------------------|
            
Submit corrections

↑ Back to top | Tablatures and chords for acoustic guitar and electric guitar, ukulele, drums are parodies/interpretations of the original songs. You may use it for private study, scholarship, research or language learning purposes only