Home » B » Bachman Turner Overdrive »

Bachman Turner Overdrive - Roll On Down The Highway Chords

Artists:  A B C D E F G H I J K L M N O P Q R S T U V W X Y Z # 

Roll On Down The Highway Chords

(ver. 1) Click to play this song!
Bachman Turner Overdrive
[Intro]

   D            Bb   C   D            Bb    C    D         Bb C  D    G  D  G
e|----------------------|----------------------|---------------------|
b|----------------------|----------------------|-----------------7-7-|
g|----------------------|----------------------|-----------------7-7-|
d|-0-4-2-0-0------------|-0-4-2-0-0------------|-0-4-2-0-0--3-5--7-7-|
a|------------0-1-0---3-|------------0-1-0---3-|------------1-3--5-5-|
e|------------------3---|------------------3---|---------------------|

[Verse 1]

D 
We rented a truck and a semi to go
C
Travel down the long and winding road
Bb 
Look on the map I think we've been here before,
A                     
Close the doors let's roll once more.


[Verse 2]

D
Cop on the corner, look he's startin' to write
C
I don't need no ticket so I screamed out of sight,
Bb
Drove so fast that my eyes can't see,
A
Look in the mirror is he still followin' me?


[Chorus]

           D             G                 D   G
Let it roll                   down the highway

          e|---------------|
          b|---------------|
          g|---------------|
          d|-0-0-0---------|
          a|------0-2---2--|
          e|-------------3-|

           D             G                D   G
Let it roll                  down the highway,
Bb    C    D
Roll, roll.


[Verse 3]

D
Look at the sign, we're in the wrong place
C
Come on boys, let's get ready to race
Bb
454 coming over the hill
A
The man on patrol, is going to give us a bill.


[verse 4]

D
The time's real short, you know the distance is long
C
I'd rather have a jet but it's not in the song
Bb
Climb back in the cab, cross your fingers for luck
A
We gotta keep movie' if we're going to make a buck.


[Chorus]
           D   G             D   G
Let it roll     down the highway,
           D   G             D   G
Let it roll     down the highway
       Bb   C    D   G  D  G
Let it roll roll roll
D
Let it roll




            
Submit corrections

↑ Back to top | Tablatures and chords for acoustic guitar and electric guitar, ukulele, drums are parodies/interpretations of the original songs. You may use it for private study, scholarship, research or language learning purposes only