Home » B » Bachman Turner Overdrive »

Bachman Turner Overdrive - Roll On Down The Highway Tabs

Artists:  A B C D E F G H I J K L M N O P Q R S T U V W X Y Z # 

Roll On Down The Highway Tabs

(ver. 1) Click to play this song!
Bachman Turner Overdrive
This was taught to me by Tim Bachman's son

It's about time the internet had a second Roll on down the highway tab


Intro
E|--------------------------------------------------------------|X2
B|--------------------------------------------------------------|
G|--------------------------------------------------------------|
D|-----0-4-2-0-0------------------------------------------------|
A|----------------0-1-0---3-------------------------------------|
E|----------------------3---------------------------------------|

E|--------------------------------------------------------------|
B|-----------------------7-7-7----------------------------------|
G|-----------------------7-7-7----------------------------------|
D|-----0-4-2-0-0---3-5---7-7-7----------------------------------|
A|-----------------1-3---5-5-5----------------------------------|
E|--------------------------------------------------------------|


Bridge
E|--5-5-5---5-5-5---5-------------------------------------------|
B|--8-8-7---8-8-8---7-------------------------------------------|
G|--7-7-7---7-7-7---7-------------------------------------------|
D|--7-7-7---7-7-7---7-------------------------------------------|
A|--5-5-5---5-5-5---5-------------------------------------------|
E|--------------------------------------------------------------|


Rythm
This part is chugged. Muffle low E by touching it with the finger fretting A
E|--------------------------------------------------------------|
B|--------------------------------------------------------------|
G|--------------------------------------------------------------|
D|--7-7-9-7--7-7-9-7--7-7-9-7--7-7-9-7--------------------------|
A|--5-5-5-5--5-5-5-5--5-5-5-5--5-5-5-5--------------------------|
E|--x-x-x-x--x-x-x-x--x-x-x-x--x-x-x-x--------------------------|

E|--------------------------------------------------------------|
B|--------------------------------------------------------------|
G|--------------------------------------------------------------|
D|--5-5-7-5--5-5-7-5--5-5-7-5--5-5-7-5--------------------------|
A|--3-3-3-3--3-3-3-3--3-3-3-3--3-3-3-3--------------------------|
E|--x-x-x-x--x-x-x-x--x-x-x-x--x-x-x-x--------------------------|

E|--------------------------------------------------------------|
B|--------------------------------------------------------------|
G|--------------------------------------------------------------|
D|--2-2-4-2--2-2-4-2--2-2-4-2--2-2-4-2--------------------------|
A|--0-0-0-0--0-0-0-0--0-0-0-0--0-0-0-0--------------------------|
E|--------------------------------------------------------------|

Chorus
E|------------------|X2
B|------------------|
G|------------------|
D|--0-0-----0-------|
A|------0h2---2-----|
E|--------------3---|

E|-----------------------5-5-5----------------------------------|
B|-----------------------7-7-7----------------------------------|
G|-----------------------7-7-7----------------------------------|
D|--0-0-----0----3-5-----7-7-7----------------------------------|
A|------0h2------1-3-----5-5-5----------------------------------|
E|--------------------------------------------------------------|

LET IT ROLL!
            
Submit corrections

↑ Back to top | Tablatures and chords for acoustic guitar and electric guitar, ukulele, drums are parodies/interpretations of the original songs. You may use it for private study, scholarship, research or language learning purposes only