» » »

Baby Metal - Awadama Fever Tabs

Artists:  A B C D E F G H I J K L M N O P Q R S T U V W X Y Z # 

Awadama Fever Tabs

(ver. 2) Click to play this song!
Baby Metal
 Rating:
2.6/5 (22 votes)

 Awadama Fever  lessons Tabs too difficult? Try these video lessons and learn fast
 
                Tuning: Drop C#

INTRO (0:13)
D#|-----------------------------------------------------------------------------|
A#|-----------------------------------------------------------------------------|
F#|-----------------------------------------------------------------------------|
C#|-3--2-1-2-3---x-x-x-3--2-1-2-3---x-x-x-3--2-1-2-3---x-x-x-3--2-1-2-3---x-x-x-|
G#|-3--2-1-2-3---x-x-x-3--2-1-2-3---x-x-x-3--2-1-2-3---x-x-x-3--2-1-2-3---x-x-x-|
C#|-3--2-1-2-3---x-x-x-3--2-1-2-3---x-x-x-3--2-1-2-3---x-x-x-3--2-1-2-3---x-x-x-|

VERSE 1 (0:24)
D#|-----------------------------------------------------------------------------|
A#|-----------------------------------------------------------------------------|
F#|-----------------------------------------------------------------------------|
C#|-3--2-1-2-3--2-1-2-3--2-1-2-3--2-1-2-3--2-1-2-3--2-1-2-3--2-1-2-3--2-1-2-----|
G#|-3--2-1-2-3--2-1-2-3--2-1-2-3--2-1-2-3--2-1-2-3--2-1-2-3--2-1-2-3--2-1-2-----|
C#|-3--2-1-2-3--2-1-2-3--2-1-2-3--2-1-2-3--2-1-2-3--2-1-2-3--2-1-2-3--2-1-2-----|

PRE-CHORUS 1 (0:35)
D#|-----------------------------------------------------------------------------|
A#|-----------------------------------------------------------------------------|
F#|-----------------------------------------------------------------------------|
C#|-3\2---3\2---3\2---3\2---3\2---3\2---3\2---3-3-3-3-2-2-2---------------------|
G#|-3\2---3\2---3\2---3\2---3\2---3\2---3\2---3-3-3-3-2-2-2---------------------|
C#|-3\2---3\2---3\2---3\2---3\2---3\2---3\2---3-3-3-3-2-2-2---------------------|

CHORUS 1 (0:46)
D#|---------------------------------------------------------------------------------|
A#|---------------------------------------------------------------------------------|
F#|---------------------------------------------------------------------------------|
C#|-3-3-3-3-3-3-3-7-7-7-7-7-7-7-7-7-12-12-12-12-12-12-12-12-12-12-12-12-12-12-12-12-| x4
G#|-3-3-3-3-3-3-3-7-7-7-7-7-7-7-7-7-12-12-12-12-12-12-12-12-12-12-12-12-12-12-12-12-|
C#|-3-3-3-3-3-3-3-7-7-7-7-7-7-7-7-7-12-12-12-12-12-12-12-12-12-12-12-12-12-12-12-12-|

INTERLUDE 1 (1:07)
D#|-----------------------------------------------------------------------------|
A#|-----------------------------------------------------------------------------|
F#|-----------------------------------------------------------------------------|
C#|-3--2-1-2-3---x-x-x-3--2-1-2-3---x-x-x-3--2-1-2-3---x-x-x-3--2-1-2-3---x-x-x-|
G#|-3--2-1-2-3---x-x-x-3--2-1-2-3---x-x-x-3--2-1-2-3---x-x-x-3--2-1-2-3---x-x-x-|
C#|-3--2-1-2-3---x-x-x-3--2-1-2-3---x-x-x-3--2-1-2-3---x-x-x-3--2-1-2-3---x-x-x-|

VERSE 2 (1:17)
D#|-----------------------------------------------------------------------------|
A#|-----------------------------------------------------------------------------|
F#|-----------------------------------------------------------------------------|
C#|-3--2-1-2-3--2-1-2-3--2-1-2-3--2-1-2-3--2-1-2-3--2-1-2-3--2-1-2-3--2-1-2-----|
G#|-3--2-1-2-3--2-1-2-3--2-1-2-3--2-1-2-3--2-1-2-3--2-1-2-3--2-1-2-3--2-1-2-----|
C#|-3--2-1-2-3--2-1-2-3--2-1-2-3--2-1-2-3--2-1-2-3--2-1-2-3--2-1-2-3--2-1-2-----|

PRE-CHORUS 2 (1:28)
D#|-----------------------------------------------------------------------------|
A#|-----------------------------------------------------------------------------|
F#|-----------------------------------------------------------------------------|
C#|-3\2---3\2---3\2---3\2---3\2---3\2---3\2---3-3-3-3-2-2-2---------------------|
G#|-3\2---3\2---3\2---3\2---3\2---3\2---3\2---3-3-3-3-2-2-2---------------------|
C#|-3\2---3\2---3\2---3\2---3\2---3\2---3\2---3-3-3-3-2-2-2---------------------|

CHORUS 2 (1:39)
D#|---------------------------------------------------------------------------------|
A#|---------------------------------------------------------------------------------|
F#|---------------------------------------------------------------------------------|
C#|-3-3-3-3-3-3-3-7-7-7-7-7-7-7-7-7-12-12-12-12-12-12-12-12-12-12-12-12-12-12-12-12-| x4
G#|-3-3-3-3-3-3-3-7-7-7-7-7-7-7-7-7-12-12-12-12-12-12-12-12-12-12-12-12-12-12-12-12-|
C#|-3-3-3-3-3-3-3-7-7-7-7-7-7-7-7-7-12-12-12-12-12-12-12-12-12-12-12-12-12-12-12-12-|

INTERLUDE 2 (2:00)
*No guitars playing here*

BRIDGE (2:11)
D#|-----------------------------------------------------------------------------|
A#|-----------------------------------------------------------------------------|
F#|-----------------------------------------------------------------------------|
C#|-3-3-4-4-5-5-4-3---2--1--0--3-3-4-4-5-5-4-3---2--1--0------------------------| x5
G#|-3-3-4-4-5-5-4-3---2--1--0--3-3-4-4-5-5-4-3---2--1--0------------------------|
C#|-3-3-4-4-5-5-4-3---2--1--0--3-3-4-4-5-5-4-3---2--1--0------------------------|
   P.M.---------|             P.M.---------|

D#|-----------------------------------------------------------------------------|
A#|-----------------------------------------------------------------------------|
F#|-----------------------------------------------------------------------------|
C#|-3-3-4-4-5-5-4-3---2--1--0--3-3-4-4-5-5-4-3----------------------------------| 
G#|-3-3-4-4-5-5-4-3---2--1--0--3-3-4-4-5-5-4-3----------------------------------|
C#|-3-3-4-4-5-5-4-3---2--1--0--3-3-4-4-5-5-4-3----------------------------------|
   P.M.---------|             P.M.-----------|

VERSE 3 (2:44)
D#|-----------------------------------------------------------------------------|
A#|-----------------------------------------------------------------------------|
F#|-----------------------------------------------------------------------------|
C#|-----------------------------------------------------------------------------| 
G#|-----------------------------------------------------------------------------|
C#|-3-3-3-3-2-1-2-3-3-3-3-2-1-2-3-3-3-3-2-1-2-3-3-3-3-2-1-2---------------------|

D#|-----------------------------------------------------------------------------|
A#|-----------------------------------------------------------------------------|
F#|-----------------------------------------------------------------------------|
C#|-----------------------------------------------------------------------------| 
G#|-----------------------------------------------------------------------------|
C#|-3-3-3-3-2-1-2-3-3-3-3-2-1-2-3-3-3-3-2-1-2-3-3-3-2---------------------------|

PRE-CHORUS 3 (2:55)
D#|-----------------------------------------------------------------------------|
A#|-----------------------------------------------------------------------------|
F#|-----------------------------------------------------------------------------|
C#|-3\2---3\2---3\2---3\2---3--3--3-3--3---3\2---3\2----------------------------|
G#|-3\2---3\2---3\2---3\2---3--3--3-3--3---3\2---3\2----------------------------|
C#|-3\2---3\2---3\2---3\2---3--3--3-3--3---3\2---3\2----------------------------|

CHORUS 3 (3:05)
D#|---------------------------------------------------------------------------------|
A#|---------------------------------------------------------------------------------|
F#|---------------------------------------------------------------------------------|
C#|-3-3-3-3-3-3-3-7-7-7-7-7-7-7-7-7-12-12-12-12-12-12-12-12-12-12-12-12-12-12-12-12-| x4
G#|-3-3-3-3-3-3-3-7-7-7-7-7-7-7-7-7-12-12-12-12-12-12-12-12-12-12-12-12-12-12-12-12-|
C#|-3-3-3-3-3-3-3-7-7-7-7-7-7-7-7-7-12-12-12-12-12-12-12-12-12-12-12-12-12-12-12-12-|

INTERLUDE 3 (3:27)
Guitar 1
D#|---------------------------------------------------------------------------------|
A#|---------------------------------------------------------------------------------|
F#|---------------------------------------------------------------------------------|
C#|-3-3-3-3-3-3-3-7-7-7-7-7-7-7-7-7-12-12-12-12-12-12-12-12-12-12-12-12-12-12-12-12-| x2
G#|-3-3-3-3-3-3-3-7-7-7-7-7-7-7-7-7-12-12-12-12-12-12-12-12-12-12-12-12-12-12-12-12-|
C#|-3-3-3-3-3-3-3-7-7-7-7-7-7-7-7-7-12-12-12-12-12-12-12-12-12-12-12-12-12-12-12-12-|

Guitar 2
D#|-------------------------------------------------------8~------------------------|
A#|---------8------8------------------------8------8--------------------------------|
F#|------10----10-----10-----------------10----10-----10----------------------------|
C#|---10------------------10~---------10--------------------------------------------| x2 
G#|-8-------------------------------8-----------------------------------------------|
C#|---------------------------------------------------------------------------------|
   *Note: This riff is also heard in CHORUS 2,3,4, but very soft...*

CHORUS 4 (3:37)
D#|---------------------------------------------------------------------------------|
A#|---------------------------------------------------------------------------------|
F#|---------------------------------------------------------------------------------|
C#|-3-3-3-3-3-3-3-7-7-7-7-7-7-7-7-7-12-12-12-12-12-12-12-12-12-12-12-12-12-12-12-12-| x3
G#|-3-3-3-3-3-3-3-7-7-7-7-7-7-7-7-7-12-12-12-12-12-12-12-12-12-12-12-12-12-12-12-12-|
C#|-3-3-3-3-3-3-3-7-7-7-7-7-7-7-7-7-12-12-12-12-12-12-12-12-12-12-12-12-12-12-12-12-|

D#|---------------------------------------------------------------------------------|
A#|---------------------------------------------------------------------------------|
F#|---------------------------------------------------------------------------------|
C#|-3-3-3-3-3-3-3-7-7-7-7-7-7-7-7-7-12-12-12-12-12-12-12-12-12-12-12-12-12\---------| 
G#|-3-3-3-3-3-3-3-7-7-7-7-7-7-7-7-7-12-12-12-12-12-12-12-12-12-12-12-12-12\---------|
C#|-3-3-3-3-3-3-3-7-7-7-7-7-7-7-7-7-12-12-12-12-12-12-12-12-12-12-12-12-12\---------|

OUTRO (3:59)
Guitar 2
D#|-----------------------------------------------------8~--------------------------|
A#|--------8------8-----------------------8------8----------------------------------|
F#|-----10----10-----10----------------10----10-----10------------------------------|
C#|----------------------10~--------------------------------------------------------| x2
G#|-8------------------------------8------------------------------------------------|
C#|---------------------------------------------------------------------------------|
            
Submit corrections


        Awadama Fever  lessons Hard to play? Try these video lessons and learn fast Awadama Fever  lessons
        
↑ Back to top | Tablatures and chords for acoustic guitar and electric guitar, ukulele, drums are parodies/interpretations of the original songs. You may use it for private study, scholarship, research or language learning purposes only