» » »

Baby Metal - Awadama Fever Tabs

Artists:  A B C D E F G H I J K L M N O P Q R S T U V W X Y Z # 

Awadama Fever Tabs

(ver. 1) Click to play this song!
Baby Metal
 Rating:
2.5/5 (27 votes)

 Awadama Fever  lessons Tabs too difficult? Try these video lessons and learn fast
 
                Riff A:
C#|---------------------------------------------------------------------------|
G#|---------------------------------------------------------------------------|
E |---------------------------------------------------------------------------|
B |--5--4--3--5--4--x-x-x-----------------------------------------------------|
F#|--5--4--3--5--4--x-x-x-----------------------------------------------------|
B |--5--4--3--5--4--x-x-x-----------------------------------------------------|

Riff B: 
C#|---------------------------------------------------------------------------|
G#|---------------------------------------------------------------------------|
E |---------------------------------------------------------------------------|
B |---------------------------------------------------------------------------|
F#|---------------------------------------------------------------------------|
B |--5--4------5--4----------------------------------------------------------|

Riff C (Chorus): 
C#|---------------------------------------------------------------------------|
G#|---------------------------------------------------------------------------|
E |-----4---------------------------------------------------------------------|
B |--5--4--2--2 --------------------------------------------------------------|
F#|--5--2--2--2---------------------------------------------------------------|
B |--5-----2--2---------------------------------------------------------------|

Riff D:
     * * * * * * *
C#|---------------------------------------------------------------------------|
G#|---------------------------------------------------------------------------|
E |---------------------------------------------------------------------------|
B |--5-5-6-6-7-7-8--5-4-3-2---------------------------------------------------|
F#|--5-5-6-6-7-7-8--5-4-3-2---------------------------------------------------|
B |--5-5-6-6-7-7-8--5-4-3-2---------------------------------------------------|

Riff E (Similar to Riff A but singular notes):
C#|---------------------------------------------------------------------------|
G#|---------------------------------------------------------------------------|
E |---------------------------------------------------------------------------|
B |---------------------------------------------------------------------------|
F#|---------------------------------------------------------------------------|
B |--5--4--3--5--4--x-x-x-----------------------------------------------------|

Riff F:
C#|------------------------------------------7~~------------------------------|
G#|--------7~~---7-----------------7~~---7------------------------------------|
E |------9-----9---9-------------9-----9---9----------------------------------|
B |----9--------------9~~------9----------------------------------------------|
F#|--7-----------------------7------------------------------------------------|
B |---------------------------------------------------------------------------|            
Submit corrections


        Awadama Fever  lessons Hard to play? Try these video lessons and learn fast Awadama Fever  lessons
        
↑ Back to top | Tablatures and chords for acoustic guitar and electric guitar, ukulele, drums are parodies/interpretations of the original songs. You may use it for private study, scholarship, research or language learning purposes only