» » »

Avicii - Wake Me Up solo Tabs

Artists:  A B C D E F G H I J K L M N O P Q R S T U V W X Y Z # 

Wake Me Up solo Tabs

(ver. 3) Click to play this song!
Avicii
 Rating:
4.3/5 (19 votes)

 Wake Me Up solo lessons Tabs too difficult? Try these video lessons and learn fast
 
                [Solo]

  03:04
e|---------------------------|-----------------|-----------------|-----------12fb--12-10-------| |
B|--10------10h12h15p10h12h15|10h12h15p10h12h15|10h12h15p10h12h15|10h12h15p10------------12-10-| |
G|----h11--------------------|-----------------|-----------------|-----------------------------| |
D|---------------------------|-----------------|-----------------|-----------------------------| |
A|---------------------------|-----------------|-----------------|-----------------------------| |
E|---------------------------|-----------------|-----------------|-----------------------------| |
                                                                                                 |x2
e|------------------|-----------------|-----------------|-----------12/14--17-14-------|         |
B|-10h12h15p10h12h15|10h12h15p10h12h15|10h12h15p10h12h15|10h12h15p10-------------17-15-|         |
G|------------------|-----------------|-----------------|------------------------------|         |
D|------------------|-----------------|-----------------|------------------------------|         |
A|------------------|-----------------|-----------------|------------------------------|         |
E|------------------|-----------------|-----------------|------------------------------|         |

   pre full-bend on 15 then bend to 18(x3),
   coming back to full pre-bend and
   releasing that full-bend back to 15...
e|-----------------------------------------------------------------------------|
B|-fpb15hb-fpb15hb-fpb15hb--rb---12h15-12---15p12-15--12p10---12---------------|
G|---------------------------------------------------------h11--11p9---9-------|
D|------------------------------------------------------------------h12-12-----|
A|-----------------------------------------------------------------------------|
E|-----------------------------------------------------------------------------|

e|-----------------------------------|-----------------------------------------|
B|-15p12-15---12p10---12-------------|-----------------------------------------|
G|-----------------h11--11p9---9-11--|14p12-11--11hb--9------------------------|
D|--------------------------h12------|------------------12~~~------------------|
A|-----------------------------------|-----------------------------------------|
E|-----------------------------------|-----------------------------------------|

e|-----------------------------------|
B|-----------------------------------|
G|-14p12-11--11hb--9-----------------|
D|-------------------12~~~~~---------|x5 to fade
A|-----------------------------------|
E|-----------------------------------|            
Submit corrections


        Wake Me Up solo lessons Hard to play? Try these video lessons and learn fast Wake Me Up solo lessons
        
↑ Back to top | Tablatures and chords for acoustic guitar and electric guitar, ukulele, drums are parodies/interpretations of the original songs. You may use it for private study, scholarship, research or language learning purposes only