» » »

Avicii - Wake Me Up Tabs

Artists:  A B C D E F G H I J K L M N O P Q R S T U V W X Y Z # 

Wake Me Up Tabs

(ver. 2) Click to play this song!
Avicii
 Rating:
4.1/5 (31 vote)

 Wake Me Up  lessons Tabs too difficult? Try these video lessons and learn fast
 
                [Intro]
G|---------------------------------------------------------------------------|
D|---------------------------------------------------------------------------|
A|---------------------------------------------------------------------------|
E|---------------------------------------------------------------------------|

[Verse]
G|-----------------------------|-----------------------(19)---------|
D|-----------------------------|------------------------------------|
A|-----------------------------|------------------------------------|
E|-----------------------------|------------------------------------|

G|-----------------------------|------------------------------------|
D|-----------------------------|------------------------------------|
A|----14--------17-----17-16---|----14--------17-----17-16----------|
E|---------15------------------|---------15-------------------------|

G|-----------------------------|------------------------------|
D|-----------------------------|------------------------------|
A|----14--------17-----17-16---|----14--------17-17-17-14\2---|
E|---------15------------------|---------15-------------------|


G|-----------------------------|-----------------------------|
D|-----------------------------|-----------------------------|
A|----2-2-------5-55-555-5-4---|----2-2-------5-55-555-5-4---|
E|---------3-3-----------------|---------3-3-----------------| x3

G|------4---------------------7----------7-----------------|
D|----------4------5--------------7------------------------|
A|----2---2------------5----5---5------5---5-4-------------|
E|---------------3---3-------------------------------------| x2

[Pre-Chorus]
G|---------------------------------------------------------|
D|---------------------------------------------------------|
A|----2----------------0----2-----------------------0------|
E|---------------------------------------------------------|

G|--------------------------2-----------------------19-----|
D|---------------------------------------------------------|
A|----2----------------2-----------------------------------|
E|---------------------------------------------------------|

[Chorus]
G|------------7----------7--7-7h9-7h9-9/11-7------------|
D|----9-9-7h9---9--7h9-7--------------------------------|
A|------------------------------------------------------|
E|------------------------------------------------------| x8

[Verse]
G|---------------------7-----------------9-7-6-------------|
D|----9------------7h9---9---------------------------------|
A|---------------------------------------------------------|
E|---------------------------------------------------------|


G|---------------------7--------------------2-4------------|
D|----9------------7h9---9---------------2h4---------------|
A|---------------------------------------------------------|
E|---------------------------------------------------------|

G|---------------------------------------------------------|
D|---------------------------------------------------------|
A|----2-------5----5-5-6------2-------5----5-5-6-----------|
E|--------3-----------------------3------------------------|

G|---------------------------------------------------------|
D|---------------------------------------------------------|
A|----2-------5----5-5-6------2-------5-5-5-14\2-----------|
E|--------3-----------------------3------------------------|

G|-----------------------------|------------------------------|
D|-----------------------------|------------------------------|
A|----2-2-------5-55-555-5-4---|----2-2-------5-55-555-5-4----|
E|---------3-3-----------------|---------3-3------------------|

G|-----------------------------|------------------------------|
D|-----------------------------|------------------------------|
A|----2-2-------5-55-555-5-4---|----2-2-------5-55-555-14\2---|
E|---------3-3-----------------|---------3-3------------------|

G|------4---------------------7----------7-----------------|
D|----------4------5--------------7------------------------|
A|----2---2------------5----5---5------5---5-4-------------|
E|---------------3---3-------------------------------------| x4

[Pre-Chorus]
G|---------------------------------------------------------|
D|---------------------------------------------------------|
A|----2----------------------------------------------------|
E|---------------------------------------------------------|

G|-------------------------------------------(19)----------|
D|---------------------------------------------------------|
A|---------------------------------------------------------|
E|---------------------------------------------------------|

[Chorus]
G|--------------7----------7---7-7h9-7h9-9/11-7------------|
D|----9---9-7h9---9--7h9-7---------------------------------|
A|---------------------------------------------------------|
E|---------------------------------------------------------| x3

G|--------------7----------7~~~----------------------------|
D|----9---9-7h9---9--7h9-7---------------------------------|
A|---------------------------------------------------------|
E|---------------------------------------------------------| 

[Outro]
      s   p   s s ps       s   p   s p s p                      
G|--------4--------------------7-----7---6-----------------|
D|----------------5----------------------------------------|
A|----2--------------------5-------5---4-------------------|
E|------------3-x---x--------------------------------------| x8

     (let ring)                   
G|---------------------------------------------------------|
D|---------------------------------------------------------|
A|----2~~~-------------------------------------------------|
E|---------------------------------------------------------|
            
Submit corrections


        Wake Me Up  lessons Hard to play? Try these video lessons and learn fast Wake Me Up  lessons
        
↑ Back to top | Tablatures and chords for acoustic guitar and electric guitar, ukulele, drums are parodies/interpretations of the original songs. You may use it for private study, scholarship, research or language learning purposes only