» » »

Authority Zero - Everyday Tabs

Artists:  A B C D E F G H I J K L M N O P Q R S T U V W X Y Z # 

Everyday Tabs

(ver. 3) Click to play this song!
Authority Zero
 Rating:
4/5 (4 votes)

 Everyday lessons Tabs too difficult? Try these video lessons and learn fast
 
                Authority Zero
Everyday

PM= Palm Mute

This is my first tab hope you'll like it.

INTO 1
E----------------------------------------------------------------------|
B----------------------------------------------------------------------|
G----------------------------------------------------------------------|
D----------------------------------------------------------------------|
A-----5-5-5-5-5-5-----5-5-8-7---5-5-5-5-5-5--77--7-7--9-9--------------|
E----7-7-3-3-5-5---------------7-7-3-3-5-5---55--5-5--7-7--------------|
                                              PM|--------|
Main Riff
E---------------------------------------------------------------------|
B---------------------------------------------------------------------|
G---------------------------------------------------------------------|
D-99999999--55555555--77777777--44444444--99999999--55555555--77777777|
A-99999999--55555555--77777777--44444444--99999999--55555555--77777777|
E-77777777--33333333--55555555--22222222--77777777--33333333--55555555|

VERSE
E-----------------------------|
B-----------------------------|
G-----------------------------|
D--99-99--55-55--77-77--44-44-|X2
A--99-99--55-55--77-77--44-44-|
E--77-77--33-33--55-55--22-22-|
PM|---------------------------|


Main Riff

Chorus
E---------------------------------------------------------------------|
B---------------------------------------------------------------------|
G---------------------------------------------------------------------|
D---------------------------------------------------------------------|X2
A-----5-5-5-5-5-5---5-5-8-7---5-5-5-5--7-7--9-9-----------------------|
E----7-7-3-3-5-5-------------7-7-3-3---5-5--7-7-----------------------|
                                    PM|---------|
Main Riff

Verse X2

Main riff

Chorus X2

Intro

Main riff(but plam mute all of it)

Main Riff X2

Chorus X2

End with a..
E---|
B---|
G---|
A-9-|
D-9-|
E-7-|

This tab is perfect....if you have questions e-mail me at
            
Submit corrections


        Everyday lessons Hard to play? Try these video lessons and learn fast Everyday lessons
        
↑ Back to top | Tablatures and chords for acoustic guitar and electric guitar, ukulele, drums are parodies/interpretations of the original songs. You may use it for private study, scholarship, research or language learning purposes only