» » »

Authority Zero - A Passage In Time Tabs

Artists:  A B C D E F G H I J K L M N O P Q R S T U V W X Y Z # 

A Passage In Time Tabs

(ver. 1) Click to play this song!
Authority Zero
 Rating:
4/5 (4 votes)

 A Passage In Time lessons Tabs too difficult? Try these video lessons and learn fast
 
                INTRO
e-----------------
B-----------------
G-----------------
D---5-------5-----
A---5-------5-----
E---3-------3----- let them ring

CHORUS
e-----------------------------------
B-----------------------------------
G---------10101010--5555--8888------
D-5555----10101010--5555--8888------ 
A-5555-----8-8-8-8--3333--6666------
E-3333------------------------------

VERSE
e---------------------------------------------------------
B---------------------------------------------------------
G-----------------8888--10101010--------------------------
D---5555---8888---8888--10101010--5555--8888--55555555----
A---5555---8888---6666—--8-8-8-8--5555--8888--55555555----
E---3333---6666-------------------3333--6666--33333333----

BASS SOLO
e----------------------------------------------------------------------
B----------------------------------------------------------------------
G----------------------------------------------------------------------
D--------------------------------12-12-12-10---------------------------
A----------------12-12-12/14-----------------12-10-----------10/12-----
E--10-10-10/12-------------------------------------12-10—12---------10-

PART AFTER SOLO
e------------------------
B------------------------
G-------8------5---------
D--5----8--8---5---------
A--5----6--8---3---------
E--3-------6-------------

Listen to song for rhythm
            
Submit corrections


        A Passage In Time lessons Hard to play? Try these video lessons and learn fast A Passage In Time lessons
        
↑ Back to top | Tablatures and chords for acoustic guitar and electric guitar, ukulele, drums are parodies/interpretations of the original songs. You may use it for private study, scholarship, research or language learning purposes only