» » »

Authority Zero - Everyday Tabs

Artists:  A B C D E F G H I J K L M N O P Q R S T U V W X Y Z # 

Everyday Tabs

(ver. 1) Click to play this song!
Authority Zero
 Rating:
4/5 (9 votes)

 Everyday lessons Tabs too difficult? Try these video lessons and learn fast
 
                |===============================|
|       Authority Zero          |
|        Everyday               |
|===============================|

^^Updated June 27th 2010: Added in a note and generally made
the tab look a *tiny* bit more professional ;)^^

++Check out my tabs of 12:34 (Version 1) and On Edge (not Guitar
Pro)!++

*Note: this tab is of a version of Everyday that doesn't appear on
the album (there are just a few small differences).
I don't have a copy of the album version of the track, but feel free to

Well, I couldn't find a properly tabbed version of this song,
so as always, I decided to do it myself. :)
Please tell me what you think! ;)

Check out some of my other tabs! :)

==
Standard Tuning
One Guitar
PM = Palm mute
==

Intro
Part 1
e|--------------------------------------------------------------|
B|--------------------------------------------------------------|
G|--------------------------------------------------------------|
D|------------------------------------------------------5-5-7---|
A|-----5---5---5---5---5---5-5-8-7-------5---5---5---5--5-5-7---|
E|---7---7---3---3---5---5-------------7---7---3---3----3-3-5---|

*Drums*
"Go!"

Part 2
e|----------------------------------------|
B|----------------------------------------|
G|----------------------------------------|
D|----99999999555555557777777744444444----|
A|----99999999555555557777777722222222----|
E|----77777777333333335555555522222222----|
Just to simplify:
8 Strums (down-up-down-up) per chord [except the last] :)

e|--------------------------|
B|--------------------------|
G|--------------------------|
D|----9999999955555555-7----|
A|----9999999955555555-7----|
E|----7777777733333333-5----|

==

Verse
e|---------------------------------------|
B|---------------------------------------|
G|---------------------------------------|
D|----9-9-9-9-5-5-5-5-7-7-7-7-4-4-4-4----|
A|----9-9-9-9-5-5-5-5-7-7-7-7-4-4-4-4----|
E|----7-7-7-7-3-3-3-3-5-5-5-5-2-2-2-2----|
PM    . . . . . . . . . . . . . . . .

==

Chorus
Part 1 x3
e|---------------------------------------|
B|---------------------------------------|
G|---------------------------------------|
D|---------------------------------------|
A|-----5---5---5---5---5---5-5-8-7-5-----|
E|---7---7---3---3---5---5---------------|

Part 2
e|----------------------------------------|
B|----------------------------------------|
G|----------------------------------------|
D|----99999999555555557777777744444444----|
A|----99999999555555557777777722222222----|
E|----77777777333333335555555522222222----|

e|--------------------------|
B|--------------------------|
G|--------------------------|
D|----9999999955555555-7----|
A|----9999999955555555-7----|
E|----7777777733333333-5----|

==

Play Verse

==

Bridge
e|--------------------------------------------------------------|
B|--------------------------------------------------------------|
G|--------------------------------------------------------------|
D|--------------------------------------------------------------|
A|-----5---5---5---5---5---5-5-8-7-------5---5---5---5--5-5-7---|
E|---7---7---3---3---5---5-------------7---7---3---3----3-3-5---|

==

Verse 3
Part 1
e|---------------------------------------|
B|---------------------------------------|
G|---------------------------------------|
D|----9-------5-------7-------4----------|
A|----9-------5-------7-------4----------|
E|----7-------3-------5-------2----------|

Part 2
e|---------------------------------------|
B|---------------------------------------|
G|---------------------------------------|
D|----9-9-9-9-5-5-5-5-7-7-7-7-4-4-4-4----|
A|----9-9-9-9-5-5-5-5-7-7-7-7-4-4-4-4----|
E|----7-7-7-7-3-3-3-3-5-5-5-5-2-2-2-2----|

==

Play Chorus Part 1

End on
e|-----|
B|-----|
G|-----|
D|--9--|
A|--9--|
E|--7--|
Hope that helped! :)
            
Submit corrections


        Everyday lessons Hard to play? Try these video lessons and learn fast Everyday lessons
        
↑ Back to top | Tablatures and chords for acoustic guitar and electric guitar, ukulele, drums are parodies/interpretations of the original songs. You may use it for private study, scholarship, research or language learning purposes only