Home » A » Augustana »

Augustana - Sunday Best Tabs

Artists:  A B C D E F G H I J K L M N O P Q R S T U V W X Y Z # 

Sunday Best Tabs

(ver. 3) Click to play this song!
Augustana
intro
the first 3 measures of the song are guitar but it sounds cool to strum the e strings on 
off beat of the 2nd of each measure. It's easy to figure out if you just listen

intro
Ho=hammer on
Hf=hammer off

                                                            (tricky to hear)
                                                                         /
                                                                        V

E-0---0---0---0---0-0-2-4-4-2-0--------0---------------0---0---0-------------|
A---0---0---0---0------------------2Ho4---4Hf2---0---0---0---0---0-----------|
D-----------------------------------------------------6----------------6-2-4-|
G----------------------------------------------------------------------------|


sleeping on the sofa
                 .....Friday
                              E--------|
                              A-2Ho4---|
                              D--------|
                              G--------|

when the oceans getting warmer
                 los angeles is tired
                                           E---------------------------|
                                           A-2Ho4-4-4Hf2-0-------------|
                                           D---------------------6-4-2-|
                                           G---------------------------|

Already out the door
   Already gone away
                                E---0---0---0-----------|
                                A-0---0---0---0---------|
                                D-----------------6-4-2-|
                                G-----------------------|

Already gone away
E-0---0---0---0---0-0-2-4-4-2-0--------0---------------0---0---0----------|
A---0---0---0---0------------------2Ho4---4Hf2---0---0---0---0---0--------|
D-----------------------------------------------------6------------6-2-4--|
G-------------------------------------------------------------------------|

E-0---0---0---0---0-0-2-4-4-2-0---------0----------------------------------|
A---0---0---0---0------------------2Ho4---4Hf2----5-4-2-0------------------|
D-----------------------------------------------------6------------6-4-2-4-|
G--------------------------------------------------------------------------|

        Coming on a Sunday
Wonder what you’re doin’
                       But I won’t
                        No I won’t
                                        E---0---0---0------------|
                                        A-0---0---0---0----------|
                                        D-----------------6-4-2--|
                                        G------------------------|

      Already out the door
         Already gone away
She’s already out of here
She’s already gone away
       Already out the door
                                      E---0---0---0------------|
                                      A-0---0---0---0----------|
                                      D-----------------6-4-2--|
                                      G------------------------|

Already gone away
E-0---0---0---0---0-0-2-4-4-2-0--------0---------------0---0---0-------------|
A---0---0---0---0------------------2Ho4---4Hf2---0---0---0---0---0-----------|
D-----------------------------------------------------6----------------6-2-4-|
G----------------------------------------------------------------------------|

E-0---0---0---0---0-0-2-4-4-2-0---------0----------------------------------|
A---0---0---0---0------------------2Ho4---4Hf2----5-4-2-0------------------|
D-----------------------------------------------------6------------6-4-2-4-|
G--------------------------------------------------------------------------|

Piano mimic
Simply play until the end of the song
E-----0-----|
A-----------|
D-----------|
G-----------|

This pattern is often heard throughout the song
E-0---0---0----|
A---0---0------|
D--------------|
G--------------|

I can’t figure out the part in
The part that’s heavy in guitar because the mandolin is playing lower and can barely be barely heard
            
Submit corrections

↑ Back to top | Tablatures and chords for acoustic guitar and electric guitar, ukulele, drums are parodies/interpretations of the original songs. You may use it for private study, scholarship, research or language learning purposes only