Home » A » Augustana »

Augustana - Sunday Best Tabs

Artists:  A B C D E F G H I J K L M N O P Q R S T U V W X Y Z # 

Sunday Best Tabs

(ver. 2) Click to play this song!
Augustana
Sunday Best by Augustana

I haven't seen a tab for this song that has the right intro. This sounds good but its my 
tab so rate/comment.  Listen to song to find the right rhythym.

Standard Tuning

***************************************************************************

Intro:

Guitar 1

e|-0--0--0--0-|
B|-0--0--0--3-|
G|-2--1--1--2-|
D|-4--2--2--0-|
A|-------4----|
E|------------|

Guitar 2

e|-12-12-12-12-12--12-14-16--16-14-12--7h9-9-9----------------------------|
B|---------------------------------------------12-10-9-10-10-10-9---------|
G|----------------------------------------------------------------11-9-11-|
D|------------------------------------------------------------------------|
A|------------------------------------------------------------------------|
E|------------------------------------------------------------------------|

***************************************************************************

Verse:

Guitar 1 (Same as Intro)

Guitar 2

e|-12-12-12-12-12-12-12-12-12-12-12-12-12-12-------------------------|
B|-------------------------------------------12h14-14-14-14-14-12-10-|
G|-------------------------------------------------------------------|
D|-------------------------------------------------------------------|
A|-------------------------------------------------------------------|
E|-------------------------------------------------------------------|

****************************************************************************

Pre-Chorus:

Guitar 1

e|-0--0--0-|
B|-3--2--0-|
G|-2--2--1-|
D|-0--2--2-|
A|----0--2-|
E|-------0-|

Guitar 2 (Same as verse)

Guitar 3 (clean electric)

e|-0-7-5--0-4-5--5-4-0-|
B|---------------------|
G|---------------------|
D|---------------------|
A|---------------------|
E|---------------------|

****************************************************************************

Chorus:

Guitar 1

e|-0--0--0-|
B|-3--0--0-|
G|-2--2--1-|
D|-0--2--2-|
A|----0--2-|
E|-------0-|


Guitar 2

e|-12-12-12-12-12-12-12-12-12-12-12-12-12-12-12-12-12-12-12----------|
B|-----------------------------------------------------------12-10-9-|
G|-------------------------------------------------------------------|
D|-------------------------------------------------------------------|
A|-------------------------------------------------------------------|
E|-------------------------------------------------------------------|

Guitar 3

e|-10-5-4~---10-5-/7~--|
B|---------------------|
G|---------------------|
D|---------------------|
A|---------------------|
E|---------------------|

****************************************************************************

Preverse and Outro:

Same as Intro

****************************************************************************

Lyrics:

When she's sleeping on the sofa,
When she's laying in her Sunday best,
when she's turning over Friday,
I could swear I'm sleeping less and less...
and the ocean's getting warmer,
and California's on her mind,
Los Angeles is tired, but we always seem to feel alright,

awoooo...
no i woooo...
no i woooooo....

Cause she's already out the door,
she's already out of here
she's already gone away...already gone away...

When I'm coming over Sunday
and I think about you all the time,
I wonder what you're doin
I wonder why you never cry,
When Boston's always raining,
And we never ever seemed alive,
I sung about you once now, I guess I might as well

awoooo...
no i woooo...
noo i woooooo....

Cause i'm already out the door,
i'm already out of here
i'm already gone away...already gone away...

Cause I'm already out of here
Shes already out here
i'm already gone away...already gone away...

Dont think about
Dont think about

****************************************************************************

There are some variations in the second verses and choruses for guitars 2 and 3 but u 
figure them out if u want. Great song, hope you like..
            
Submit corrections

↑ Back to top | Tablatures and chords for acoustic guitar and electric guitar, ukulele, drums are parodies/interpretations of the original songs. You may use it for private study, scholarship, research or language learning purposes only