Home » A » Attack In Black »

Attack In Black - Broken Things Tabs

Artists:  A B C D E F G H I J K L M N O P Q R S T U V W X Y Z # 

Broken Things Tabs

(ver. 2) Click to play this song!
Attack In Black
(Intro)
hey, the first tab for this song is almost 100% accurate, ive found an easier way to 
the intro. It sounds just as good as the first version of this tab only a little easier to 
Attack in Black rocks, go buy there demo cd!!!


e--------------------------------------------|
B---------------------------------------7-5--|
G--------------------------------------------| x2 (Distorted/Palm Muted)
D-------------2----------------------2-------|
A--------4-2-4--4-2-------------4-2-4--------|
D---4-4-4-----------------4-4-4--------------|
 on last time though end on this:

e--------------------|
B---5/7\5------------|
G---------6\2-2------|
D----------------7~--|
A----------------7~--|
D----------------7~--|
            
Submit corrections

↑ Back to top | Tablatures and chords for acoustic guitar and electric guitar, ukulele, drums are parodies/interpretations of the original songs. You may use it for private study, scholarship, research or language learning purposes only