Home » A » Attack In Black »

Attack In Black - Broken Things Tabs

Artists:  A B C D E F G H I J K L M N O P Q R S T U V W X Y Z # 

Broken Things Tabs

(ver. 3) Click to play this song!
Attack In Black
this is a really sweet simple song. i hope u like it. please rate me.

starts with this:

e--------------------------------------------|
B--------------3-5----------------------7-5--|
G------------------4-2-------------4-6-------| x2
D---------2--------------------2-------------|
A-------4---4----------------4---------------|
D---4-4------------------4-4-----------------|
 on last time though end on this:

e--------------------|
B---5/7\5------------|
G---------6\2-2------|
D----------------7~--|
A----------------7~--|
D----------------7~--|


then during singing it does this:
verse:

e-----------------------|
B-----------------------|
G-----------------------| x2
D--7~--7~--4~--0~--7~---|
A--7~--7~--4~--0~--7~---|
D--7~--7~--4~--0~--7~---|

on every second time it does this on ending:

e------------------------|
B------------------------|
G------------------------|
D--7-7-7-7-7-7-7-7-7-7---|
A--7-7-7-7-7-7-7-7-7-7---|
D--7-7-7-7-7-7-7-7-7-7---|

it does the verse and ending 2 times

then it goes back into this thing:

e--------------------------------------------|
B--------------3-5----------------------7-5--|
G------------------4-2-------------4-6-------| x2
D---------2--------------------2-------------|
A-------4---4----------------4---------------|
D---4-4------------------4-4-----------------|
 on last time though end on this:

e--------------------|
B---5/7\5------------|
G---------6\2-2------|
D----------------7~--|
A----------------7~--|
D----------------7~--|

then it does this:

e---------|
B---------|
G---------|
D---7-7~--|
A---7-7~--|
D---7-7~--|

thats all the song does, just listen to it for how many times u play stuff and when u 
it. i hope u liked my tab please rate it.
            
Submit corrections

↑ Back to top | Tablatures and chords for acoustic guitar and electric guitar, ukulele, drums are parodies/interpretations of the original songs. You may use it for private study, scholarship, research or language learning purposes only