» » »

Atmosphere - Me Tabs

Artists:  A B C D E F G H I J K L M N O P Q R S T U V W X Y Z # 

Me Tabs

(ver. 2) Click to play this song!
Atmosphere
 Rating:
4/5 (4 votes)

 Me lessons Tabs too difficult? Try these video lessons and learn fast
 
                
Note, Edited By AdmiralAUGBAR1 (2:55-3:05)

Tuning: Standard

 0:00 - 0:12
e|---------------------------------------------------------------------------|
B|-0-0-0-0-0-0-0-0-0-0-0-0-0-0-0-0-------------------------------------------|
G|---------------------------------------------------------------------------|
D|---------------------------------------------------------------------------|
A|---------------------------------------------------------------------------|
E|---------------------------------------------------------------------------|

 0:13 - 2:54
e|---------------------------------------------------------------------------|
B|-8-8-8-8-8-7-7--7-7-7-7-7--5-5---------------------------------------------|
G|---------------------------------------------------------------------------|
D|---------------------------------------------------------------------------|
A|---------------------------------------------------------------------------|
E|---------------------------------------------------------------------------|

 2:55 - 3:05
e|---------------------------------------------------------------------------|
B|-1-1--1-1--0-0-0-3-1-0-----------------------------------------------------|
G|-----------------------0---------------------------------------------------|
D|---------------------------------------------------------------------------|
A|---------------------------------------------------------------------------|
E|---------------------------------------------------------------------------|

 3:06 - 3:27
e|---------------------------------------------------------------------------|
B|-8-8-8-8-8-7-7--7-7-7-7-7--5-5---------------------------------------------|
G|---------------------------------------------------------------------------|
D|---------------------------------------------------------------------------|
A|---------------------------------------------------------------------------|
E|---------------------------------------------------------------------------|

===============================================================
            
Submit corrections


        Me lessons Hard to play? Try these video lessons and learn fast Me lessons
        
↑ Back to top | Tablatures and chords for acoustic guitar and electric guitar, ukulele, drums are parodies/interpretations of the original songs. You may use it for private study, scholarship, research or language learning purposes only