Home » A » Atlanta Rhythm Section »

Atlanta Rhythm Section - Spooky Tabs

Artists:  A B C D E F G H I J K L M N O P Q R S T U V W X Y Z # 

Spooky Tabs

(ver. 3) Click to play this song!
Atlanta Rhythm Section
[Intro]

e|----------------------------|
B|--------7---7—--7---7---7---|
G|--------7---7---7---7---7---|
D|--------7---7---7---7---7---| X4
A|----------------------------|
E|-5-6-7----------------------|

e|----------------------------|
B|----8--8------7--7----------|
G|----7--7------6--6----------|
D|----9--9------5--5----------| X2
A|-7----7---------------7-5---|
E|----------0-5-------7-----7-|


[Verse 1]

e|----------------------------|
B|----8--8------7--7----------|
G|----7--7------6--6----------|
D|----9--9------5--5----------| X4
A|-7----7---------------7-5---|
E|----------0-5-------7-----7-|

e|----------------------------|----------------------------|
B|----8--8-----------8--8-----|----7------------5-5--------|
G|----7--7-----------7--7-----|----6------------6-6--------|
D|----9--9-----------9--9-----|----5------------5-5--------|
A|-7----7---------7----7------|----------------------------|
E|-------------7--------------|----5------------6-6--------|

e|----------------------------|----------------------------|
B|----8--8------7--7----------|----8--8-------7-7-7-7-7----|
G|----7--7------6--6----------|----7--7-------7-7-7-7-7----|
D|----9--9------5--5----------|----9--9-------7-7-7-7-7----|
A|-7----7---------------------|-7----7---------------------|
E|----------0-5---------------|---------------7-7-7-7-7----|


[Verse 2]
 
e|----------------------------|
B|----8--8------7--7----------|
G|----7--7------6--6----------|
D|----9--9------5--5----------| X4
A|-7----7---------------7-5---|
E|----------0-5-------7-----7-|

e|----------------------------|----------------------------|
B|----8--8-----------8--8-----|----7------------5-5--------|
G|----7--7-----------7--7-----|----6------------6-6--------|
D|----9--9-----------9--9-----|----5------------5-5--------|
A|-7----7---------7----7------|----------------------------|
E|-------------7--------------|----5------------6-6--------|

e|----------------------------|----------------------------|
B|----8--8------7--7----------|----8--8-------7-7-7-7-7----|
G|----7--7------6--6----------|----7--7-------7-7-7-7-7----|
D|----9--9------5--5----------|----9--9-------7-7-7-7-7----|
A|-7----7---------------------|-7----7---------------------|
E|----------0-5---------------|---------------7-7-7-7-7----|

e|----------------------------|
B|---------------8-8-8-8-8----|
G|---------------8-8-8-8-8----|
D|---------------8-8-8-8-8----|
A|----------------------------|
E|---------------8-8-8-8-8----|


[Guitar Solo 1]

e|------------------------------|
B|----9---9-------8--8----------|
G|----8---8-------7--7----------|
D|----10--10------6--6----------| X4
A|-8-----8----------------8-6---|
E|--------------6-------8-----8-|

e|--------------------------------|----------------------------|
B|----9---9------------9---9------|----8------------6-6--------|
G|----8---8------------8---8------|----7------------7-7--------|
D|----10--10-----------10--10-----|----6------------6-6--------|
A|-8-----8----------8-----8-------|----------------------------|
E|---------------8----------------|----6------------7-7--------|

e|------------------------------|------------------------------|
B|----9---9-------8--8----------|----9---9--------8-8-8-8-8----|
G|----8---8-------7--7----------|----8---8--------8-8-8-8-8----|
D|----10--10------6--6----------|----10--10-------8-8-8-8-8----|
A|-8-----8----------------------|-8-----8----------------------|
E|--------------6---------------|-----------------8-8-8-8-8----|


[Verse 3] 

e|------------------------------|
B|----9---9-------8--8----------|
G|----8---8-------7--7----------|
D|----10--10------6--6----------| X4
A|-8-----8----------------8-6---|
E|--------------6-------8-----8-|

e|--------------------------------|----------------------------|
B|----9---9------------9---9------|----8------------6-6--------|
G|----8---8------------8---8------|----7------------7-7--------|
D|----10--10-----------10--10-----|----6------------6-6--------|
A|-8-----8----------8-----8-------|----------------------------|
E|---------------8----------------|----6------------7-7--------|

e|------------------------------|------------------------------|
B|----9---9-------8--8----------|----9---9--------8-8-8-8-8----|
G|----8---8-------7--7----------|----8---8--------8-8-8-8-8----|
D|----10--10------6--6----------|----10--10-------8-8-8-8-8----|
A|-8-----8----------------------|-8-----8----------------------|
E|--------------6---------------|-----------------8-8-8-8-8----|


[Guitar Solo 2]

e|------------------------------|
B|----9---9-------8--8----------|
G|----8---8-------7--7----------|
D|----10--10------6--6----------| X4
A|-8-----8----------------8-6---|
E|--------------6-------8-----8-|

e|--------------------------------|----------------------------|
B|----9---9------------9---9------|----8------------6-6--------|
G|----8---8------------8---8------|----7------------7-7--------|
D|----10--10-----------10--10-----|----6------------6-6--------|
A|-8-----8----------8-----8-------|----------------------------|
E|---------------8----------------|----6------------7-7--------|

e|------------------------------|------------------------------|
B|----9---9-------8--8----------|----9---9--------8-8-8-8-8----|
G|----8---8-------7--7----------|----8---8--------8-8-8-8-8----|
D|----10--10------6--6----------|----10--10-------8-8-8-8-8----|
A|-8-----8----------------------|-8-----8----------------------|
E|--------------6---------------|-----------------8-8-8-8-8----|


[Piano Solo]

e|------------------------------|
B|----9---9-------8--8----------|
G|----8---8-------7--7----------|
D|----10--10------6--6----------| X4
A|-8-----8----------------8-6---|
E|--------------6-------8-----8-|

e|--------------------------------|----------------------------|
B|----9---9------------9---9------|----8------------6-6--------|
G|----8---8------------8---8------|----7------------7-7--------|
D|----10--10-----------10--10-----|----6------------6-6--------|
A|-8-----8----------8-----8-------|----------------------------|
E|---------------8----------------|----6------------7-7--------|

e|------------------------------|------------------------------|
B|----9---9-------8--8----------|----9---9--------8-8-8-8-8----|
G|----8---8-------7--7----------|----8---8--------8-8-8-8-8----|
D|----10--10------6--6----------|----10--10-------8-8-8-8-8----|
A|-8-----8----------------------|-8-----8----------------------|
E|--------------6---------------|-----------------8-8-8-8-8----|


[Guitar Solo 3]

e|------------------------------|
B|----9---9-------8--8----------|
G|----8---8-------7--7----------|
D|----10--10------6--6----------| X4
A|-8-----8----------------8-6---|
E|--------------6-------8-----8-|

e|--------------------------------|----------------------------|
B|----9---9------------9---9------|----8------------6-6--------|
G|----8---8------------8---8------|----7------------7-7--------|
D|----10--10-----------10--10-----|----6------------6-6--------|
A|-8-----8----------8-----8-------|----------------------------|
E|---------------8----------------|----6------------7-7--------|

e|------------------------------|------------------------------|
B|----9---9-------8--8----------|----9---9--------8-8-8-8-8----|
G|----8---8-------7--7----------|----8---8--------8-8-8-8-8----|
D|----10--10------6--6----------|----10--10-------8-8-8-8-8----|
A|-8-----8----------------------|-8-----8----------------------|
E|--------------6---------------|-----------------8-8-8-8-8----|


[Outro]

e|----------------------------|
B|---------------8-8-8-8-8----|
G|---------------8-8-8-8-8----|
D|---------------8-8-8-8-8----| X3
A|----------------------------|
E|---------------8-8-8-8-8----|            
Submit corrections

↑ Back to top | Tablatures and chords for acoustic guitar and electric guitar, ukulele, drums are parodies/interpretations of the original songs. You may use it for private study, scholarship, research or language learning purposes only