Home » A » Atlanta Rhythm Section »

Atlanta Rhythm Section - Spooky Tabs

Artists:  A B C D E F G H I J K L M N O P Q R S T U V W X Y Z # 

Spooky Tabs

(ver. 1) Click to play this song!
Atlanta Rhythm Section

Tuning:EADGBe

Intro
e|------|| -------------------- || x3
B|------|| -------------------- ||
G|------||.--------------------.||
D|------||.--------------------.||
A|-0-1-2|| --------------0-1-2- ||
E|------|| -------------------- ||
        ||                      ||
       e|| -------------------- || |---------------------|
       B|| -7---7---7---7----7- || |-7---7---7---7----7\-|
       G||.-7---7---7---7----7-.|| |-7---7---7---7----7\-|
       D||.--------------------.|| |---------------------|
       A|| -------------------- || |---------------------|
       E|| -------------------- || |---------------------|

Verse  E7         A13       x6   E7                      A13
e|------------------------- ||--------------------------------------------|
B|-----8-x-8-8\---7-7--7~-- ||-----7-x-7-7--x-7-7--7--7---7-----8--8~-----|
G|-----7-x-7-7\---6-6--6~--.||-----7-x-8-8--x-8-8--8--8---6-----6--6~-----|
D|-----9-x-9-9\---5-5--5~--.||-----9-x-9-9--x-9-9--9--9---5-----7--7~-----|
A|--7------7-7\------------ ||--7------7-7--x-7-7--7--7-------------------|
E|------------------------- ||--------------------------------------------|
      E7          A13            E7          Bm7        Cm7
e|-------------------------------------------7-7-7-7-7||-8--8--8--8--8--|
B|-----8-x-8-8\---7-7--7~-----8-x-8-8--8-----7-7-7-7-7||-8--8--8--8--8--|
G|-----7-x-7-7\---6-6--6~-----7-x-7-7--7-----7-7-7-7-7||-8--8--8--8--8--|
D|-----9-x-9-9\---5-5--5~-----9-x-9-9--9-----7-7-7-7-7||-8--8--8--8--8--|
A|--7------7-7\------------7----x-7-7--7--9--9-9-9-9-9||-10-10-10-10-10-|
E|----------------------------------------7--7-7-7-7-7||-8--8--8--8--8--|

Repeat verse once, 2nd time add the five extra hits of the Cm7, and then the solos just 
the same progressions up half a step. Have fun with the solos =) its a great jazz jam tune
            
Submit corrections

↑ Back to top | Tablatures and chords for acoustic guitar and electric guitar, ukulele, drums are parodies/interpretations of the original songs. You may use it for private study, scholarship, research or language learning purposes only