Home » A » As It Is »

As It Is - Dial Tones Tabs

Artists:  A B C D E F G H I J K L M N O P Q R S T U V W X Y Z # 

Dial Tones Tabs

(ver. 2) Click to play this song!
As It Is
[Intro] Guitar 1:
D|------7-----|-----------|-----7-----|------------|
A|---------7--|-----7--9--|--------7--|-----7h9p7--|
G|--7---------|--7--------|--7--------|--7---------|
D|------------|-----------|-----------|------------|
A|------------|-----------|-----------|------------|
D|------------|-----------|-----------|------------|(x2)

[Intro] Guitar 2:
D|------|------|------|
A|------|------|------|
G|------|------|------|
D|--5---|--7---|--9---|
A|--5---|--7---|--9---|
D|--5---|--7---|--9---|(x2)

[Verse] Guitar 2:
"It Really Hurts To..."
D|------|------|------|
A|------|------|------|
G|------|------|------|
D|--5---|--7---|--9---|
A|--5---|--7---|--9---|
D|--5---|--7---|--9---|(x4)

[Verse] Guitar 1:
"And If You're A Mess..."
D|------7-----|-----------|-----7-----|------------|
A|---------7--|-----7--9--|--------7--|-----7h9p7--|
G|--7---------|--7--------|--7--------|--7---------|
D|------------|-----------|-----------|------------|
A|------------|-----------|-----------|------------|
D|------------|-----------|-----------|------------|(x2)

[PreChorus] Guitar 1:
"I'm Sorry.."
D|---0---|---0--0--0--0--0--|
A|--10---|--12-12-12-12-12--|
G|-------|------------------|
D|-------|------------------|
A|-------|------------------|
D|-------|------------------|

[PreChorus] Guitar 2:
"I'm Sorry.."
D|------|-------------|
A|------|-------------|
G|------|-------------|
D|--5---|--7-7-7-7-7--|
A|--5---|--7-7-7-7-7--|
D|--5---|--7-7-7-7-7--|

[Chorus] Guitar 1:
"Am I All That You Never Wanted..."
D|---0---0---0--0---0----0----0--0--0--0--0--0--0--|--0---0--0--0---0---0--0---0-0-0-0-0-0--|
A|--10--10--10--9---9---12---12-12-12-12-12-12-12--|--7---7--7--7---7---7--4/5-5-5-5-5-5-5--|
G|-------------------------------------------------|----------------------------------------|
D|-------------------------------------------------|----------------------------------------|
A|-------------------------------------------------|----------------------------------------|
D|-------------------------------------------------|----------------------------------------|(x4)

[Chorus] Guitar 2: (x2)
"Am I All That You Never Wanted..."
D|---------------------------------------|---------------------------------------|
A|---------------------------------------|---------------------------------------|
G|---------------------------------------|---------------------------------------|
D|--5---5--5--5---5--5---0--0---0--0--0--|--7---7--7--7---7--7---9--9---9--9--9--|
A|--5---5--5--5---5--5---0--0---0--0--0--|--7---7--7--7---7--7---9--9---9--9--9--|
D|--5---5--5--5---5--5---0--0---0--0--0--|--7---7--7--7---7--7---9--9---9--9--9--|

D|---------------------------------------|---------------------------------------|
A|---------------------------------------|---------------------------------------|
G|---------------------------------------|---------------------------------------|
D|--5---5--5--5---5--5---0--0---0--0--0--|--7---7--7--7---7--7---7--7---7--7--7--|
A|--5---5--5--5---5--5---0--0---0--0--0--|--7---7--7--7---7--7---7--7---7--7--7--|
D|--5---5--5--5---5--5---0--0---0--0--0--|--7---7--7--7---7--7---7--7---7--7--7--|

[Post-Chorus] Guitar 1:
d|-------------------------------|--------------------------------|
A|--4/5/7h9p7p0--5p0--12p0--7p0--|--4/5/7h9p7p0--5p0--14p0--12p0--|
G|-------------------------------|--------------------------------|
D|-------------------------------|--------------------------------|
A|-------------------------------|--------------------------------|
D|-------------------------------|--------------------------------|(x2)

[Post-Chorus] Guitar 2:
D|-------------------|--------------------|
G|-------------------|--------------------|
A|--4--4--4----------|--------------------|
D|--4--4--4----5-----|--0--0--0----7------|
A|--2--2--2----5-----|--0--0--0----7------|
D|-------------5-----|--0--0--0----7------|

[Verse 2] Guitar 1:
"I'm Getting More..."
D|------7-----|-----------|-----7-----|------------|
A|---------7--|-----7--9--|--------7--|-----7h9p7--|
G|--7---------|--7--------|--7--------|--7---------|
D|------------|-----------|-----------|------------|
A|------------|-----------|-----------|------------|
D|------------|-----------|-----------|------------|(x4)

[Verse 2] Guitar 2:
"I'm Getting More..."
D|------|------|------|
A|------|------|------|
G|------|------|------|
D|--5---|--7---|--9---|
A|--5---|--7---|--9---|
D|--5---|--7---|--9---|(x2)

D|------------------|--------------------|------------------|-----------------------|
A|------------------|--------------------|------------------|-----------------------|
G|------------------|--------------------|------------------|-----------------------|
D|--5---------------|--7-----------------|--9---------------|-----------------------|
A|--5---------------|--7-----------------|--9---------------|-----------------------|
D|--5--5-5-5-5-5-5--|--7--7-7-7-7-7-7-7--|--9--9-9-9-9-9-9--|--9-9-9-9-12-12-12-12--|(x2)

[PreChorus] Guitar 1:
"I"m Running Out Of..."
D|---0---|---0--0--0--0--0----|--0--|
A|--10---|--12-12-12-12-12----|--5--|
G|-------|--------------------|-----|
D|-------|--------------------|-----|
A|-------|--------------------|-----|
D|-------|--------------------|-----|

[PreChorus] Guitar 2:
"I"m Running Out Of..."
D|------|---------------|-----|
A|------|---------------|-----|
G|------|---------------|-----|
D|--5---|--7-7-7-7-7----|--0--|
A|--5---|--7-7-7-7-7----|--0--|
D|--5---|--7-7-7-7-7----|--0--|

[Chorus] Guitar 1:
"Am I All That You Never Wanted..."
D|---0---0---0--0---0----0----0--0--0--0--0--0--0--|--0---0--0--0---0---0--0---0-0-0-0-0-0--|
A|--10--10--10--9---9---12---12-12-12-12-12-12-12--|--7---7--7--7---7---7--4/5-5-5-5-5-5-5--|
G|-------------------------------------------------|----------------------------------------|
D|-------------------------------------------------|----------------------------------------|
A|-------------------------------------------------|----------------------------------------|
D|-------------------------------------------------|----------------------------------------|(x2)

[Chorus] Guitar 2: (x2)
"Am I All That You Never Wanted..."
D|---------------------------------------|---------------------------------------|
A|---------------------------------------|---------------------------------------|
G|---------------------------------------|---------------------------------------|
D|--5---5--5--5---5--5---0--0---0--0--0--|--7---7--7--7---7--7---9--9---9--9--9--|
A|--5---5--5--5---5--5---0--0---0--0--0--|--7---7--7--7---7--7---9--9---9--9--9--|
D|--5---5--5--5---5--5---0--0---0--0--0--|--7---7--7--7---7--7---9--9---9--9--9--|

D|---------------------------------------|---------------------------------------|
A|---------------------------------------|---------------------------------------|
G|---------------------------------------|---------------------------------------|
D|--5---5--5--5---5--5---0--0---0--0--0--|--7---7--7--7---7--7---7--7---7--7--7--|
A|--5---5--5--5---5--5---0--0---0--0--0--|--7---7--7--7---7--7---7--7---7--7--7--|
D|--5---5--5--5---5--5---0--0---0--0--0--|--7---7--7--7---7--7---7--7---7--7--7--| 

[Bridge] Guitar 1:
"Forget Me..."
D|--------0--|--------0--|--------0--|--------0--|
A|-----9-----|-----7-----|-----5-----|-----5-----|
G|-----------|-----------|--0--------|--0--------|
D|--9--------|--7--------|-----------|-----------|
A|-----------|-----------|-----------|-----------|
D|-----------|-----------|-----------|-----------|(x4)

[Bridge] Guitar 2:
"Forget Me..."
D|-----|-----|-----|-----|
A|-----|-----|-----|-----|
G|-----|-----|-----|-----|
D|--9--|--7--|--5--|--5--|
A|--9--|--7--|--5--|--5--|
D|--9--|--7--|--5--|--5--|

[Piano Solo] Guitar 2 Only:
D|-----|-----|-----|--------------------------|
A|--9--|--7--|--5--|--------------------------|
G|--x--|--x--|--x--|--------------------------|
D|--9--|--7--|--5--|--5--5--5--5--5--5--5--5--|
A|--9--|--7--|--5--|--5--5--5--5--5--5--5--5--|
D|--9--|--7--|--5--|--5--5--5--5--5--5--5--5--|

[Final Chorus] Guitar 1:
"Am I All That You Never Wanted..."
D|---0--0-----0-0---|--0---0--0--0--|
A|--10-10-----5-5---|--7---7--7--7--|
G|------------------|---------------|
D|------------------|---------------|
A|------------------|---------------|
D|------------------|---------------|

D|---0---0---0--0---0----0----0--0--0--0--0--0--0--|--0---0--0--0---0---0--0---0-0-0-0-0-0--|
A|--10--10--10--9---9---12---12-12-12-12-12-12-12--|--7---7--7--7---7---7--4/5-5-5-5-5-5-5--|
G|-------------------------------------------------|----------------------------------------|
D|-------------------------------------------------|----------------------------------------|
A|-------------------------------------------------|----------------------------------------|
D|-------------------------------------------------|----------------------------------------|(x3)

[Final Chorus] Guitar 2:
"Am I All That You Never Wanted..."
D|-------------------|---------------|
A|-------------------|---------------|
G|-------------------|---------------|
D|--5--5------0--0---|--7---7--7--7--|
A|--5--5------0--0---|--7---7--7--7--|
D|--5--5------0--0---|--7---7--7--7--|

D|---------------------------------------|---------------------------------------|
A|---------------------------------------|---------------------------------------|
G|---------------------------------------|---------------------------------------|
D|--5---5--5--5---5--5---0--0---0--0--0--|--7---7--7--7---7--7---7--7---7--7--7--|
A|--5---5--5--5---5--5---0--0---0--0--0--|--7---7--7--7---7--7---7--7---7--7--7--|
D|--5---5--5--5---5--5---0--0---0--0--0--|--7---7--7--7---7--7---7--7---7--7--7--|

D|---------------------------------------|---------------------------------------|
A|---------------------------------------|---------------------------------------|
G|---------------------------------------|---------------------------------------|
D|--5---5--5--5---5--5---0--0---0--0--0--|--7---7--7--7---7--7---9--9---9--9--9--|
A|--5---5--5--5---5--5---0--0---0--0--0--|--7---7--7--7---7--7---9--9---9--9--9--|
D|--5---5--5--5---5--5---0--0---0--0--0--|--7---7--7--7---7--7---9--9---9--9--9--|

D|---------------------------------------|---------------------------------------|
A|---------------------------------------|---------------------------------------|
G|---------------------------------------|---------------------------------------|
D|--5---5--5--5---5--5---0--0---0--0--0--|--7---7--7--7---7--7---7--7---7--7--7--|
A|--5---5--5--5---5--5---0--0---0--0--0--|--7---7--7--7---7--7---7--7---7--7--7--|
D|--5---5--5--5---5--5---0--0---0--0--0--|--7---7--7--7---7--7---7--7---7--7--7--|

[Outro] Guitar 1:
"All We Ever Share Are..."
D|--12------12-------12------12------|--11------11------12------12------|
A|------12------12-------12------12--|------12------12------12------12--|
G|-----------------------------------|----------------------------------|
D|-----------------------------------|----------------------------------|
A|-----------------------------------|----------------------------------|
D|-----------------------------------|----------------------------------|(x2)

D|--12--|
A|--12--|
G|------|
D|------|
A|------|
D|------|


[Outro] Guitar 2:
"All We Ever Share Are..."
D|--------------|--------------|--------------|--------------|
A|--------------|--------------|--------------|--------------|
G|--------------|--------------|--------------|--------------|
D|--5--5--5--5--|--0--0--0--0--|--7--7--7--7--|--9--9--9--9--|
A|--5--5--5--5--|--0--0--0--0--|--7--7--7--7--|--9--9--9--9--|
D|--5--5--5--5--|--0--0--0--0--|--7--7--7--7--|--9--9--9--9--|(x2)

D|-----|
A|-----|
G|-----|
D|--5--|
A|--5--|
D|--5--|            
Submit corrections

↑ Back to top | Tablatures and chords for acoustic guitar and electric guitar, ukulele, drums are parodies/interpretations of the original songs. You may use it for private study, scholarship, research or language learning purposes only