Home » A » As It Is »

As It Is - My Oceans Were Lakes Tabs

Artists:  A B C D E F G H I J K L M N O P Q R S T U V W X Y Z # 

My Oceans Were Lakes Tabs

(ver. 1) Click to play this song!
As It Is
Tuning:DADGAD
                                              
d|-----0-------------0-----------------0----| 
a|---------0-----------------------0h2------|
G|-------0---------0-------0-------------0--|  x6
D|---------------4-----------4-0-0----------| 
A|------------------------------------------|
D|-5-5-------0-0-------2-2------------------|


d|-------------------------------------------0-0----|
a|-------------------------------------0---0--------|
G|---------0-0---------0-0---------0-0---0-------0--|
D|---4-2-4-------4-2-4-------4-2-4------------------|
A|--------------------------------------------------|
D|-2-----------0-----------5------------------------|
                                                       
d|-----------------------------------------0--------|
a|---------------------------------------0----------|
G|---------0-0---------0-0---------0-0-0------------|  
D|---4-2-4-------4-2-4-------4-2-4------------------|
A|--------------------------------------------------|
D|-2-----------0-----------5------------------------|


d|-----0-------------0-----------------0----| 
a|---------0-----------------------0h2------|
G|-------0---------0-------0-------------0--|  x8
D|---------------4-----------4-0-0----------| 
A|------------------------------------------|
D|-5-5-------0-0-------2-2------------------|


d|-------------------------------------------0-0----|
a|-------------------------------------0---0--------|
G|---------0-0---------0-0---------0-0---0-------0--|
D|---4-2-4-------4-2-4-------4-2-4------------------|
A|--------------------------------------------------|
D|-2-----------0-----------5------------------------|
                                                       
d|-----------------------------------------0--------|
a|---------------------------------------0----------|
G|---------0-0---------0-0---------0-0-0------------|  
D|---4-2-4-------4-2-4-------4-2-4------------------|
A|--------------------------------------------------|
D|-2-----------0-----------5------------------------|


d|-----0-------------0-----------------0----| 
a|---------0-----------------------0h2------|
G|-------0---------0-------0-------------0--|  x4
D|---------------4-----------4-0-0----------| 
A|------------------------------------------|
D|-5-5-------0-0-------2-2------------------|


d|-----0----------------------------|
a|---------0------------------------|
G|---0---0---0-----0---0-----0---0--|  x6
D|-4--------------------------------|
A|-------------3-3---3---3-3---3----|
D|----------------------------------|


d|---------0----------|----0---------0--|
a|---0---------0------|----------0------|
G|-----0-----0-----0--|------0-----0----|
D|-0-----0-------4----|--0-----0--------|
A|--------------------|-----------------|
D|--------------------|-----------------|

d|-0-----------------------0--------------|
a|---3-2---0---2---0-2-------2---3-2-0----|
G|-------0---0---0-----0-0-----0-------0--|
D|----------------------------------------|
A|----------------------------------------|
D|----------------------------------------|


d|-----0-------------0-----------------0----| 
a|---------0-----------------------0h2------|
G|-------0---------0-------0-------------0--|  x4
D|---------------4-----------4-0-0----------| 
A|------------------------------------------|
D|-5-5-------0-0-------2-2------------------|            
Submit corrections

↑ Back to top | Tablatures and chords for acoustic guitar and electric guitar, ukulele, drums are parodies/interpretations of the original songs. You may use it for private study, scholarship, research or language learning purposes only