Home » A » As It Is »

As It Is - Cheap Shots Setbacks Bass

Artists:  A B C D E F G H I J K L M N O P Q R S T U V W X Y Z # 

Cheap Shots Setbacks Bass

(ver. 1) Click to play this song!
As It Is
  Verse
G|-------------------------------------------------------------------|
D|o-----------------------------------------------------------------o|
A|o-8-----------5-------------------8-----------5-------------------o|
E|--------8-----------6-------------------8-----------6--------------|x3
    1 + 2 + 3 + 4 + 1 + 2 + 3 + 4 + 1 + 2 + 3 + 4 + 1 + 2 + 3 + 4 +

G|-----------------------------------------------------------------|
D|-----------------------------------------------------------------|
A|-8------------5-------------------8------------------------------|
E|-------8-----------6-------------------8-----6-------------------|
   1 + 2 + 3 + 4 + 1 + 2 + 3 + 4 + 1 + 2 + 3 + 4 + 1 + 2 + 3 + 4 +

  Chorus
G|-----------------------------------------------------------------|
D|-----------------------------------------------------------------|
A|-------0---0-1---1-1-1-1-1-1-1-0-------3---3---1---1-1-1-1-1-1-1-|
E|-1---1---------------------------1---1---------------------------|
   1 + 2 + 3 + 4 + 1 + 2 + 3 + 4 + 1 + 2 + 3 + 4 + 1 + 2 + 3 + 4 +

G|-----------------------------------------------------------------|
D|-----------------------------------------------------------------|
A|-------0---0-1---1-1-1-1-1-1-1-0-3---3-3-3---3-3-1---1-1-1---1-1-|
E|-1---1-----------------------------------------------------------|
   1 + 2 + 3 + 4 + 1 + 2 + 3 + 4 + 1 + 2 + 3 + 4 + 1 + 2 + 3 + 4 +

  Verse
G|-----------------------------------------------------------------|
D|-----------------------------------------------------------------|
A|-------------5-------------------8-----------5-------------------|
E|-------------------6-------------------8-----------6-------------|
   1 + 2 + 3 + 4 + 1 + 2 + 3 + 4 + 1 + 2 + 3 + 4 + 1 + 2 + 3 + 4 +

G|-----------------------------------------------------------------|
D|---------------------------------------5-----7-------------------|
A|-8-----------5-------------------8-------------------------------|
E|-------8-----------6-------------------------------6-------------|
   1 + 2 + 3 + 4 + 1 + 2 + 3 + 4 + 1 + 2 + 3 + 4 + 1 + 2 + 3 + 4 +

G|-----------------------------------------------------------------|
D|-----------------------------------------------------------------|
A|-8-----------5-------------------8-----------5-------------------|
E|-------8-----------6-------------------8-----------6-------------|
   1 + 2 + 3 + 4 + 1 + 2 + 3 + 4 + 1 + 2 + 3 + 4 + 1 + 2 + 3 + 4 +

G|-----------------------------------------------------------------|
D|-----------------------------------------------------------------|
A|-8-----------5-------------------8---8---------------------------|
E|-------8-----------6-------------------8---8-6-------------------|
   1 + 2 + 3 + 4 + 1 + 2 + 3 + 4 + 1 + 2 + 3 + 4 + 1 + 2 + 3 + 4 +

  Chorus x2
G|------------------------------------------------------------------|
D|o-----------------------------------------------------------------|
A|o-------0---0-1---1-1-1-1-1-1-1-0-------3---3---1---1-1-1-1-1-1-1-|
E|--1---1---------------------------1---1---------------------------|
    1 + 2 + 3 + 4 + 1 + 2 + 3 + 4 + 1 + 2 + 3 + 4 + 1 + 2 + 3 + 4 +

G|------------------------------------------------------------------|
D|-----------------------------------------------------------------o|
A|-------0---0-1---1-1-1-1-1-1-1-0-3---3-3-3---3-3-1---1-1-1---1-1-o|
E|-1---1------------------------------------------------------------|
   1 + 2 + 3 + 4 + 1 + 2 + 3 + 4 + 1 + 2 + 3 + 4 + 1 + 2 + 3 + 4 +

Rest 

  Bridge x2
G|------------------------------------------------------------------|
D|o-----------------------------------------------------------------|
A|o-1---1-1-1---1-1-3-3---3-3-3-3-3-5---5-5-5---5-5-0---0-0-0-0-0-0-|
E|------------------------------------------------------------------|
    1 + 2 + 3 + 4 + 1 + 2 + 3 + 4 + 1 + 2 + 3 + 4 + 1 + 2 + 3 + 4 +

G|------------------------------------------------------------------|
D|-----------------------------------------------------------------o|
A|-1---1-1-1---1-1-3-3---3-3-3-3-3---------------------------------o|
E|---------------------------------1---1---1---1---1---1---1---1----|
   1 + 2 + 3 + 4 + 1 + 2 + 3 + 4 + 1 + 2 + 3 + 4 + 1 + 2 + 3 + 4 +

  Chorus
G|-----------------------------------------------------------------|
D|-----------------------------------------------------------------|
A|-----------------------------------------------------------------|
E|-1---------------------------------------------------------------|
   1 + 2 + 3 + 4 + 1 + 2 + 3 + 4 + 1 + 2 + 3 + 4 + 1 + 2 + 3 + 4 +

G|-----------------------------------------------------------------|
D|-----------------------------------------------------------------|
A|-------------------------------------------------3---------------|
E|-----------------------------------------------------------------|
   1 + 2 + 3 + 4 + 1 + 2 + 3 + 4 + 1 + 2 + 3 + 4 + 1 + 2 + 3 + 4 +

  Chorus 
G|-----------------------------------------------------------------|
D|-----------------------------------------------------------------|
A|-------0-0-0-1-1-1-1-1-1-1-1-1-1-------3-3-3-1-1-1-1-1-1-1-1-1-1-|
E|-1-1-1---------------------------1-1-1---------------------------|
   1 + 2 + 3 + 4 + 1 + 2 + 3 + 4 + 1 + 2 + 3 + 4 + 1 + 2 + 3 + 4 +

G|-----------------------------------------------------------------|
D|-----------------------------------------------------------------|
A|-------0-0-0-1-1-1-1-1-1-1-1-1-1-3-3-3-3-3-3-3-3-1-1-1-1-1-1-1-1-|
E|-1-1-1-----------------------------------------------------------|
   1 + 2 + 3 + 4 + 1 + 2 + 3 + 4 + 1 + 2 + 3 + 4 + 1 + 2 + 3 + 4 +

G|-----------------------------------------------------------------|
D|-----------------------------------------------------------------|
A|-------0-0-0-1-1-1-1-1-1-1-1-1-1-------3-3-3-1-1-1-1-1-1-1-1-1-1-|
E|-1-1-1---------------------------1-1-1---------------------------|
   1 + 2 + 3 + 4 + 1 + 2 + 3 + 4 + 1 + 2 + 3 + 4 + 1 + 2 + 3 + 4 +

G|-----------------------------------------------------------------|
D|-----------------------------------------------------------------|
A|-------0-0-0-1-1-1-1-1-1-1-1-1-1-3---3-----------1---------------|
E|-1-1-1-----------------------------------------------------------|
   1 + 2 + 3 + 4 + 1 + 2 + 3 + 4 + 1 + 2 + 3 + 4 + 1 + 2 + 3 + 4 +            
Submit corrections

↑ Back to top | Tablatures and chords for acoustic guitar and electric guitar, ukulele, drums are parodies/interpretations of the original songs. You may use it for private study, scholarship, research or language learning purposes only