Home » A » Aretha Franklin »

Aretha Franklin - Respect Bass

Artists:  A B C D E F G H I J K L M N O P Q R S T U V W X Y Z # 

Respect Bass
Version #3
Aretha Franklin


Copy URL
 Intro
  Q=116
 4/4
  Gtr I
  H    S S E E E   E E +E  E +E  E +E  E
|----------------|-----------------------|
|----------------|---------------------0-|
|-3----3p0---0-3-|---------0-(0)-2-(2)---|
|----------3-----|-0-1-(1)---------------|


  Q  Q  S S E E E   E E +E  E +E  E E E
|-----------------|----------------------||
|-----------------|----------------------||
|-3--3--3p0---0-3-|---------0-(0)-1-2-3--||
|-----------3-----|-0-1-(1)--------------||


   1st - 4th Verses
    $
    Q  Q  S S S S +S  S S S   E E +E  E +E  E E E   Q  Q  S S S S +S  S S S
||--0--0--------0-(0)-------|---------------------|-0--0--------0-(0)-------|
||o-------2p0-2-------2h3---|---------0-(0)-2-3-2-|-------2p0-2-------2h3---|
||o-----------------------0-|---3-(3)-------------|-----------------------0-|
||--------------------------|---------------------|-------------------------|


  E E +E  E +E  E E E   Q  Q  S S S S +S  S S S   E E +E  E +E  E E E
|-----------------0---|-0--0--------0-(0)-------|---------------------||
|---------0-(0)-2---2-|-------2p0-2-------2h3---|---------0-(0)-3-1-0-||
|---3-(3)-------------|-----------------------0-|---3-(3)-------------||
|---------------------|-------------------------|---------------------||


 Chorus
  Q  Q  S S S S E E   E E +E  E +E  E +E  E
|-------------------|-----------------------|
|-------------------|---------------------0-|
|-3--3--3p0---0-3-3-|---------0-(0)-2-(2)---|
|-----------3-------|---1-(1)---------------|


                                 To Coda
  Q  Q  S S S S E E   E E +E  E +E  E E E  3x
|-------------------|----------------------||
|-------------------|---------------------o||
|-3--3--3p0---0-3-3-|---------0-(0)-1-2-3-o||
|-----------3-------|---1-(1)--------------||


 Bridge / Sax Solo
  Q  E E E E E E   Q  E E E E E E   Q  E E E E E E   Q  E E E E E E
|----------------|----------------|----------------|-----------------|
|-4--4---4-4-4---|-4--4---4-4-4---|----------------|-----------------|
|------4-------4-|------4-------4-|-2--2---2-2-2---|-2--2---2-2-3-4--|
|----------------|----------------|------2-------2-|------2----------|


                                                      D.S. al Coda
  Q  E E E E E E   Q  E E E E E E   Q  E E E E E E   Q  E E E E E E
|----------------|----------------|----------------|-----------------||
|-4--4---4-4-4---|-4--4---4-4-4---|-5--5---5-5-5---|-5--5---5-5-5----||
|------4-------4-|------4-------4-|------5-------5-|------5-------5--||
|----------------|----------------|----------------|-----------------||


 Interlude
  &
  E Q.   Q.   E   E Q.   Q.   E   E Q.   Q.   E   E Q.   Q.   E
|---------------|---------------|---------------|----------------||
|---------------|-3-----------3-|---------------|----------------||
|-3-----------3-|---------------|-3-----------3-|----------------||
|---------------|---------------|---------------|-1-----------1--||


   Out-Chorus
    Q  Q  S S S S E E   E E +E  E +E  E +E  E
||--------------------|-----------------------|
||o-------------------|---------------------0-|
||o-3--3--3p0---0-3-3-|---------0-(0)-2-(2)---|
||------------3-------|---1-(1)---------------|


  Q  Q  S S S S E E   E E +E  E +E  E E E   3x
|-------------------|-----------------------||
|-------------------|----------------------o||
|-3--3--3p0---0-3-3-|---------0-(0)-1-2-3--o||
|-----------3-------|---1-(1)---------------||
            
Submit corrections

↑ Back to top | Tablatures and chords for acoustic guitar and electric guitar, ukulele, drums are parodies/interpretations of the original songs. You may use it for private study, scholarship, research or language learning purposes only