Home » A » Aretha Franklin »

Aretha Franklin - Respect Bass

Artists:  A B C D E F G H I J K L M N O P Q R S T U V W X Y Z # 

Respect Bass

(ver. 1) Click to play this song!
Aretha Franklin
Aretha Franklin
bass part played by Otis Redding

i had the sheet music for this...


G|----------------------------|----------------------------|
D|--------------------------0-|----------------------------|
A|-3--3-0---0-3-3-----0-1-2---|-3--3-0---0-3-3-----0-1-2-3-|
E|--------3-------0-1---------|--------3-------0-1---------|


|-0--0--------0-0-----------------------|--0--0--------0-0-------------------|
|-------2-0-2-----2-3-------0--2--3-----|--------2-0-2-----2-3-------3--1--0-|
|---------------------0--3--------------|----------------------0--3----------|
|-------------------------------------x2|------------------------------------|


|----------------------------|----------------------------|
|--------------------------0-|----------------------------|
|-3--3-0---0-3-3-----0-1-2---|-3--3-0---0-3-3-----0-1-2-3-|
|--------3-------0-1---------|--------3-------0-1---------|


|-0--0--------0-0-----------------------|--0--0--------0-0-------------------|
|-------2-0-2-----2-3-------0--2--3-----|--------2-0-2-----2-3-------3--1--0-|
|---------------------0--3--------------|----------------------0--3----------|
|-------------------------------------x2|------------------------------------|


|-------------------------------|-------------------------|
|--------------------------0----|-------------------------|
|-3--3-0---0-3-3-----0-1-2----3-|-3-0---0-3-3-----0-1-2-3-|
|--------3-------0-1------------|-----3-------0-1---------|


|-0--0------0-0--------------------|-0--0--------0-0-------------------|
|------2-0------2-3--------0--2--3-|-------2-0-2-----2-3-------0--2--3-|
|--------------------0--3----------|---------------------0--3----------|
|----------------------------------|-----------------------------------|

|-0--0--------0-0---------------------|
|-------2-0-2-----2-3-------0--1--0---|
|---------------------0--3------------|
|-------------------------------------|


|------------------------------|----------------------------|
|------------------------------|----------------------------|
|-3--3-0---0-3-3-----0-1-1-2-2-|-3--3-0---0-3-3-----0-1-2-3-|
|--------3-------0-1-----------|--------3-------0-1---------|


|-------------------------------------------------------------------|
|-4--4----4-4-4----4--4----4-4-4------------------------------------|
|-------4-------4--------4-------4--2-2-2---2-2-2---2-2-2---2-2-2---|
|-----------------------------------------2-------2-------2-------2-|

|------------------------------------------------------------------|
|-4-4-4---4-4-4---4-4-4---4-4-4----5-5-5---555-5---5-5-5---5-5-5---|
|-------4-------4-------4-------4--------5-------5-------5-------5-|
|------------------------------------------------------------------|


|-0--0------0-0--------------------|-0--0--------0-0-------------------|
|------2-0------0---3-3-0---0-3-3--|-------2-0-2-----2-3-------0--2--3-|
|-----------------3-------3--------|---------------------0--3----------|
|----------------------------------|-----------------------------------|

|-0--0--------0-0---------------------|
|-------2-0-2-----2-3-------0--1--0---|
|---------------------0--3------------|
|-------------------------------------|


|----------------------------|----------------------------|
|--------------------------0-|----------------------------|
|-3--3-0---0-3-3-----0-1-2---|-3--3-0---0-3-3-----0-1-3-1-|
|--------3-------0-1---------|--------3-------0-1---------|

|----------------------------|----------------------------|
|----------------------------|----------------------------|
|-3------------------------1-|-3--------------------------|
|----------------0-1---------|----------------0-1---------|

Fade Out
|----------------------------|
|--------------------------0-|
|-3--3-0---0-3-3-----0-1-2---|
|--------3-------0-1---------|
            
Submit corrections

↑ Back to top | Tablatures and chords for acoustic guitar and electric guitar, ukulele, drums are parodies/interpretations of the original songs. You may use it for private study, scholarship, research or language learning purposes only