» » »

Arcade Fire - Windowsill Tabs

Artists:  A B C D E F G H I J K L M N O P Q R S T U V W X Y Z # 

Windowsill Tabs

(ver. 2) Click to play this song!
Arcade Fire
 Rating:
4/5 (4 votes)

 Windowsill lessons Tabs too difficult? Try these video lessons and learn fast
 
                (Intro)
Windowsill – Arcade Fire
Tuning: Standard
 
E |---------------------------------------------------|
B |---------------------------------------------------|
G |---------------------------------------------------|
D |--5-5-5-5-5-5-5-5-5-5-5-5-5-5-5-5-5-5-5-5-5-5-5-5-5|
A |---------------------------------------------------|
E |-3-3-3-3-3-3-3-3-3-3-3-3-3-3-3-3-3-3-3-3-3-3-3-3-3-|

E |-----------------------|
B |-----------------------|
G |-----------------------|
D |---5-5-5-5-5-5-5-5-5-5-|
A |------------------3-3--|
E |--2-2-2-2-2-2-2-2------|

E |---------------------------------|
B |---------------------------------|
G |---------------------------------|
D |--5-5-5-5-5-5-5-5-5-5-5-5-5-5-5--|
A |-3-3-3-3-3-3-3-3-3-3-3-3-3-3-3---|
E |---------------------------------| X2
            
Submit corrections


        Windowsill lessons Hard to play? Try these video lessons and learn fast Windowsill lessons
        
↑ Back to top | Tablatures and chords for acoustic guitar and electric guitar, ukulele, drums are parodies/interpretations of the original songs. You may use it for private study, scholarship, research or language learning purposes only