Home » A » Arcade Fire »

Arcade Fire - Abrahams Daughter Tabs

Artists:  A B C D E F G H I J K L M N O P Q R S T U V W X Y Z # 

Abrahams Daughter Tabs

(ver. 1) Click to play this song!
Arcade Fire
 Rating:
4.3/5 (6 votes)
                Abraham's Daughter - Arcade Fire

Tuning: Standard

e|--0---3---2---5---3---7---5---8---7---3---5---2----|
B|----0---0---0---0---0---0---0---0---0---0---0---0--|
G|---------------------------------------------------|
D|---------------------------------------------------|
A|---------------------------------------------------|
E|---------------------------------------------------|

e|---------------------------------------|
B|------0-------0-------0-------0--------|
G|----0---0---0---0---0---0---0---0------|
D|--2-------2-------2-------2------------|  x2 include line above
A|---------------------------------------|
E|---------------------------------------|

e|--7---7-8-7---5---5---5-7-5---3---3---3-5-3---2---2-0---|
B|------------------------------------------------3-------|
G|--------------------------------------------------------|
D|--------------------------------------------------------|
A|--------------------------------------------------------|
E|--------------------------------------------------------|

e|--0--0--0-0--0----|
B|--0--0--0-0--0----|
G|--0--0--0-0--0----| x2
D|--2--2--2-2--2----|
A|--2--2--2-2--2----|
E|--0--0--0-0--0----|

e|--0---3---2---5---3---7---5---8---7---3---5---2----|
B|----0---0---0---0---0---0---0---0---0---0---0---0--|
G|---------------------------------------------------|
D|---------------------------------------------------|
A|---------------------------------------------------|
E|---------------------------------------------------|

e|---------------------------------------|
B|------0-------0-------0-------0--------|
G|----0---0---0---0---0---0---0---0------|
D|--2-------2-------2-------2------------|  x2 include line above
A|---------------------------------------|
E|---------------------------------------|

e|--7---7-8-7---5---5---5-7-5---3---3---3-5-3---2---2-0---|
B|------------------------------------------------3-------|
G|--------------------------------------------------------| x2
D|--------------------------------------------------------|
A|--------------------------------------------------------|
E|--------------------------------------------------------|




e|--0--0--0-0--0----|
B|--0--0--0-0--0----|
G|--0--0--0-0--0----| x3
D|--2--2--2-2--2----|
A|--2--2--2-2--2----|
E|--0--0--0-0--0----|

Guitar 1
e|--0---3---2---5---3---7---5---8---7---3---5---2----|
B|----0---0---0---0---0---0---0---0---0---0---0---0--|
G|---------------------------------------------------|
D|---------------------------------------------------|
A|---------------------------------------------------|
E|---------------------------------------------------|

e|---------------------------------------|
B|------0-------0-------0-------0--------|
G|----0---0---0---0---0---0---0---0------|
D|--2-------2-------2-------2------------|  x2 include line above
A|---------------------------------------|     2nd time don't play 2nd line
E|---------------------------------------|


Guitar 2
e|--7---7-8-7---5---5---3-5-3---2---2---0--3-2------0---0--|
B|----------------------------------------------3------3---|
G|---------------------------------------------------------|
D|---------------------------------------------------------|
A|---------------------------------------------------------|
E|---------------------------------------------------------|

e|--7---7-8-7---5---5---3-5-3---2---2---0--3-2------0-----|
B|----------------------------------------------3---------|
G|--------------------------------------------------------|
D|--------------------------------------------------------|
A|--------------------------------------------------------|
E|--------------------------------------------------------|

it may not be perfect but it's as close as i could get!
it sounds kinda cool if you add some hammer ons or slides
thanks!

************************************

| /   slide up
| \   slide down
| h   hammer-on
| p   pull-off
| ~   vibrato
| +   harmonic
| x   Mute note
| b   Bend
| pb  Pre-bend
| br  Bend release
| pbr Pre-bend release
| brb Bend release bend

************************************
            
Submit corrections

↑ Back to top | Tablatures and chords for acoustic guitar and electric guitar, ukulele, drums are parodies/interpretations of the original songs. You may use it for private study, scholarship, research or language learning purposes only