» » »

Arcade Fire - Half Light I Tabs

Artists:  A B C D E F G H I J K L M N O P Q R S T U V W X Y Z # 

Half Light I Tabs

(ver. 1) Click to play this song!
Arcade Fire
 Rating:
3.6/5 (23 votes)

 Half Light I lessons Tabs too difficult? Try these video lessons and learn fast
 
                Tuning: Standard


  (0:00)
e|---------------------------------------------------------------------------|
B|-10--10--10--10--10--10--10--10--------------------------------------------|
G|-10--10--10--10--10--10--10--10--------------------------------------------|
D|-12--12--12--12--12--12--12--12--------------------------------------------|
A|---------------------------------------------------------------------------|
E|---------------------------------------------------------------------------|

  (0:02)
e|---------------------------------------------------------------------------|
B|-8--8--8--8--8--8--8--8--8--8--8--8--8--8--8--8----------------------------|
G|-9--9--9--9--9--9--9--9--9--9--9--9--9--9--9--9----------------------------|
D|10-10-10-10-10-10-10-10-10-10-10-10-10-10-10-10----------------------------|
A|---------------------------------------------------------------------------|
E|---------------------------------------------------------------------------|

e|---------------------------------------------------------------------------|
B|-8--8--8--8--8--8--8--8--8--8--8--8--8--8--8--8----------------------------|
G|-9--9--9--9--9--9--9--9--9--9--9--9--9--9--9--9----------------------------|
D|-9--9--9--9--9--9--9--9--9--9--9--9--9--9--9--9----------------------------|
A|---------------------------------------------------------------------------|
E|---------------------------------------------------------------------------|

e|---------------------------------------------------------------------------|
B|-10--10--10--10--10--10--10--10--10--10--10--10--10--10--10--10------------|
G|-10--10--10--10--10--10--10--10--10--10--10--10--10--10--10--10------------|
D|-10--10--10--10--10--10--10--10--10--10--10--10--10--10--10--10------------|
A|---------------------------------------------------------------------------|
E|---------------------------------------------------------------------------|

e|---------------------------------------------------------------------------|
B|-10--10--10--10--10--10--10--10--10--10--10--10--10--10--10--10------------|
G|-10--10--10--10--10--10--10--10--10--10--10--10--10--10--10--10------------|
D|-12--12--12--12--12--12--12--12--12--12--12--12--12--12--12--12------------|
A|---------------------------------------------------------------------------|
E|---------------------------------------------------------------------------|
  
  (2:05)
e|---------------------------------------------------------------------------|
B|-12--12--12--12--12--12--12--12--12----------------------------------------|
G|-12--12--12--12--12--12--12--12--12----------------------------------------|
D|-12--12--12--12--12--12--12--12--14----------------------------------------|
A|---------------------------------------------------------------------------|
E|---------------------------------------------------------------------------|
  
   (2:10)
e|-8--8--8--8--8--8--8--8--8--8--8--8--8--8--8--8----------------------------|
B|-8--8--8--8--8--8--8--8--8--8--8--8--8--8--8--8----------------------------|
G|-9--9--9--9--9--9--9--9--9--9--9--9--9--9--9--9----------------------------|
D|10-10-10-10-10-10-10-10-10-10-10-10-10-10-10-10----------------------------|
A|---------------------------------------------------------------------------|
E|---------------------------------------------------------------------------|

e|---------------------------------------------------------------------------|
B|-8--8--8--8--8--8--8--8--8--8--8--8--8--8--8--8----------------------------|
G|-9--9--9--9--9--9--9--9--7--7--7--7--7--7--7--7----------------------------|
D|-9--9--9--9--9--9--9--9--9--9--9--9--9--9--9--9----------------------------|
A|---------------------------------------------------------------------------|
E|---------------------------------------------------------------------------|            
Submit corrections


        Half Light I lessons Hard to play? Try these video lessons and learn fast Half Light I lessons
        
↑ Back to top | Tablatures and chords for acoustic guitar and electric guitar, ukulele, drums are parodies/interpretations of the original songs. You may use it for private study, scholarship, research or language learning purposes only