» » »

Arcade Fire - Neighborhood Tunnels Tabs

Artists:  A B C D E F G H I J K L M N O P Q R S T U V W X Y Z # 

Neighborhood Tunnels Tabs

(ver. 3) Click to play this song!
Arcade Fire
 Rating:
4/5 (4 votes)

 Neighborhood  Tunnels lessons Tabs too difficult? Try these video lessons and learn fast
 
                "(2)
#------------------------------------------------------------------------------##
Arcade Fire - Tunnels, guitar tabs
=======================================
I post this one because all other tabs are wrong with the Win Butler's melody

INTRO:

win butler plays this

E||-----------------|-----------------|-----------------|-----------------|
B||-----------------|-----------------|-----------------|-----------------|
G||-----------------|-----------------|-----------------|-----------5-----|
D||---------------3-|---2-------------|---------------3-|---2---5-7---7-5-| x2
A||-------0---3-----|-----------------|-------0---3-----|-----------------|
E||-0-1-------------|-----------------|-0-1-------------|-----------------|

interlude and chorus:

E||-----------------|-----------------|-----------------|-----------------|
B||-----------------|-----------------|-----------------|-----------------|
G||---------5-------|-5---------------|---------5-------|-5---------------|
D||-7---------7-5-7-|---7-5-7-5-7-8---|-7---------7-5-7-|---7-5-7-5-7-8---|
A||-----------------|-----------------|-----------------|-----------------|
E||-----------------|-----------------|-----------------|-----------------|

post chorus:
tremolo picking

E||-------------------|-------------------|---------------------|----------------------|
B||-------------------|-------------------|---------------------|----------------------|
G||-------------------|-------------------|---------------------|----------------------|
D||--5----------------|--7----------------|--8--------10--------|--12--------14--------|
A||-------------------|-------------------|---------------------|----------------------|
E||-------------------|-------------------|---------------------|----------------------|

interlude 2:

E||-------------------|-----------------|-------------------|------------8------|
B||-------------------|-----------------|-------------------|-------8-10---10-8-|
G||----------------10-|---9-------------|----------------10-|---9---------------|
D||-------7---10------|-----------------|-------7---10------|-------------------|
A||-7-8---------------|-----------------|-7-8---------------|-------------------|
E||-------------------|-----------------|-------------------|-------------------|
"            
Submit corrections


        Neighborhood  Tunnels lessons Hard to play? Try these video lessons and learn fast Neighborhood  Tunnels lessons
        
↑ Back to top | Tablatures and chords for acoustic guitar and electric guitar, ukulele, drums are parodies/interpretations of the original songs. You may use it for private study, scholarship, research or language learning purposes only