» » »

Arcade Fire - Headlights Look Like Diamonds Tabs

Artists:  A B C D E F G H I J K L M N O P Q R S T U V W X Y Z # 

Headlights Look Like Diamonds Tabs

(ver. 2) Click to play this song!
Arcade Fire
 Rating:
4/5 (6 votes)
                
This song has an easy guitar part that continues, mostly unchanged throughout the entire song. Enjoy!


e|-------5--------5--------5---------5----------5---------5-------|
B|--6------- 6---------6--------6----------5---------5------------|
G|----------------------------------------------------------------|
D|----------------------------------------------------------------|
A|----------------------------------------------------------------|
E|----------------------------------------------------------------|


e|----------------------------------------------------------------|
B|--5-----8-----6-----5-------------------------------------------|
G|---------------------------5------------------------------------|
D|----------------------------------------------------------------|
A|----------------------------------------------------------------|
E|----------------------------------------------------------------|

Repeat throughout the song.
            
Submit corrections

↑ Back to top | Tablatures and chords for acoustic guitar and electric guitar, ukulele, drums are parodies/interpretations of the original songs. You may use it for private study, scholarship, research or language learning purposes only