Home » A » Arcade Fire »

Arcade Fire - Abrahams Daughter Bass

Artists:  A B C D E F G H I J K L M N O P Q R S T U V W X Y Z # 

Abrahams Daughter Bass

(ver. 1) Click to play this song!
Arcade Fire
-----------------------------------------------------------------
Abraham's Daughter--Arcade Fire (Bass tab)
-----------------------------------------------------------------
Tuning: Standard

Verse:
G|---------------------------------------------------------------|
D|---------------------------------------------------------------|
A|---------------------------------------------------------------|x2
E|--0---3---2----5----3----7---5---8---7---3---5---2---0---00----|
Chorus:
G|---------------------------------------------------------------|
D|---------------------------------------------------------------|
A|---------------------------------------------------------------|x1
E|---7--7-8-7---5--5-7-5--3--3--5--3--2-----0-0------------------|

Verse 2:
G|---------------------------------------------------------------|
D|---------------------------------------------------------------|
A|---------------------------------------------------------------|x2
E|--0---3---2----5----3----7---5---8---7---3---5---2---0---00----|
Chorus 2:
G|---------------------------------------------------------------|
D|---------------------------------------------------------------|
A|---------------------------------------------------------------|x1
E|---7--7-8-7---5--5-7-5--3--3--5--3--2-----0-0------------------|
            
Submit corrections

↑ Back to top | Tablatures and chords for acoustic guitar and electric guitar, ukulele, drums are parodies/interpretations of the original songs. You may use it for private study, scholarship, research or language learning purposes only