Home » A » Anthony Hamilton »

Anthony Hamilton - Lucille Tabs

Artists:  A B C D E F G H I J K L M N O P Q R S T U V W X Y Z # 

Lucille Tabs

(ver. 2) Click to play this song!
Anthony Hamilton
Standard Tuning
Lucille - Anthony Hamilton
Acoutic Guitar

I recorded this song for a friend at my college 
for his music technology coursework, 
so I sat down and figured it out so Im pretty sure its 100% correct.

This song has a Capo at the 4th fret and is pretty 
much impossible to play with one.
Its also all finger picked.

The song is based on this chord, which I think is a G#7 sus4

Hold this chord through out the song until
the outro "solo" piece
e|---------4---|
B|---------7---|
G|---------6---|
D|---------4---|
A|---------6---|
E|---------4---|

Intro
e|-----4-----------|
B|----7-7-----7--7-|
G|---6-------6--6--|  Do this twice
D|-----------------|
A|--6--------------|
E|----------4--6---|

Then this
e|-----4-------------------|
B|----7-7-----7--7---------|
G|---6-------6--6----------|  
D|-------------------------|
A|--6----------------------|
E|----------4--6-----7-----|
                     ^ Thumb this note

Thiis is the Verse and Chorus
e|-----4-----------|
B|----7-7-----7--7-|
G|---6-------6--6--|  
D|-----------------|
A|--6--------------|
E|----------4--6---|

Bridge
e|------4----4------4-----4-|
B|-----7----7-7----7-----7-7|
G|----6----6------6-----6---|  
D|--------------------------|
A|---------------4-----6----|
E|--6-----7-----------------|
    ^     ^ Thumb both of these notes

Now the cool bit, this is quite intracate and takes a decent amount of practice and co-ordination.
e|-----------------------------------|
B|-----------------------------------|
G|----4-----4h6----6-6h7----4h6-6----|
D|---4-4---4------4--------7---------|
A|--7-----6------5--------4----------|
E|-----------------------------------|
            
Submit corrections

↑ Back to top | Tablatures and chords for acoustic guitar and electric guitar, ukulele, drums are parodies/interpretations of the original songs. You may use it for private study, scholarship, research or language learning purposes only