Home » A » Anthony Hamilton »

Anthony Hamilton - Lucille Tabs

Artists:  A B C D E F G H I J K L M N O P Q R S T U V W X Y Z # 

Lucille Tabs

(ver. 1) Click to play this song!
Anthony Hamilton
"Lucille" by Anthony Hamilton 

A really beautiful song that I believe should have been tabbed out by now.
The song is kind of difficult to play. The song centers around a Dm11# chord
with some bass note changes.

The chord Dm11# (The way I play it)

e|---------4---|
B|---------7---|
G|---------6---|
D|---------X---|
A|---------6---|
E|---------X---|

Make sure your comfortable and familiar with it. 

Here we go. . . 

[Intro/Verse/Chorus]

e|-----4-----------|
B|----7-7-----7--7-|
G|---6-------6--6--|  3X
D|-----------------|
A|--6--------------|
E|----------4--6---|

e|------4----------|
B|-----7-7----7--7-|
G|----6------6--6--|  1X
D|-----------------|
A|-----------------|
E|--7------6-------|

repeat as needed

[Bridge]

e|------4----4------4-----4-|
B|-----7----7-7----7-----7-7|
G|----6----6------6-----6---|  6x
D|--------------------------|
A|---------------4-----6----|
E|--6-----7-----------------|

[Outro]

e|----------------------------------|
B|----------------------------------|
G|---4~~----4H6-4--6-6H8-----4H6-4--|
D|--4------4-------6--------4-------|
A|------4h6--------------4H6--------|
E|----------------------------------|

Rift the outro out as many times as you want or can.

The order
[Intro]
[Verse]
[Chorus]
[Verse]
[Chorus]
[Chorus]
[Bridge]
[Outro]

Legend:
~ = Vibrato
H = Hammer on

This song is no easy feat if you have never played the Dm11# before, or played in a fingerpicking style.
Dont get me wrong,You can get by using only your pick or thumb, it may take a little longer. 
Listen to the song, start slow, and build up. You'll be playing it in no time.

The things I do in my spare time. . .
            
Submit corrections

↑ Back to top | Tablatures and chords for acoustic guitar and electric guitar, ukulele, drums are parodies/interpretations of the original songs. You may use it for private study, scholarship, research or language learning purposes only