Home » A » Anouk »

Anouk - The Dark Tabs

Artists:  A B C D E F G H I J K L M N O P Q R S T U V W X Y Z # 

The Dark Tabs

(Version #2)
Anouk
Intro    3x                     1X                   
G|-----------------------|-----------------|
D|-----------------------|-----------------|
A|-----5h7777-5555-3333--|------5555-3-----|
E|-0000------------------|--000------------|
                                     -1-




verse   3x                        1x                  1x
G|----------10h12-----|-------------------------|----------10h12----|
D|----2---5------11---|----2--------------------|----2---5------11--|
A|--------------------|-------------------------|-------------------|
E|-0xx-0h3------------|-0xx---5/7-xx7-5h6p5h6-0-|-0xx-0h3-----------|


        1x               1x 
G|---------0--------|----------10h12-----|
D|----2-------------|----2---5------11---|
A|------------17~ --|--------------------|
E|-0xx-0h33-3/------|-0xx-0h3---------0--|



Chorus    1x                     1X                   
G|-----------------------|-------------------|
D|-----------------------|-------------------|
A|-----5h7777-5555-3333--|----5h7-5555-3-----|
E|-0000------------------|--00---------------|
B                                        -1-



verse    1x               1x                1x
G|----------10h12----|----------0--------|----------10h12-----9---------77-------|
D|----2---5------11--|-----2-------------|----2---5------11----------------------|
A|-------------------|-------------17~ --|---------------------10h11-4/5---55h7--|
E|-0xx-0h3-----------|--0xx-0h33-3/------|-0xx-0h3----------0--------------------|



G|----------10h12----|---------0---------|-----------10h12----|-----------------|
D|----2---5------11--|----2--------------|----2---5\------11--|--2-2-22-22-22-2-|
A|-------------------|------------17~ ---|--------------------|-----------------|
E|-0xx-0h3-----------|-0xx-0h33-3/-------|-0xx-0h3------------|-0---------------|




Chorus    3x                     1X                   
G|-----------------------|-------------------|
D|-----------------------|-------------------|
A|-----5h7777-5555-3333--|----5h7--5555-3----|
E|-0000------------------|--00---------------|
                                         -1-                                          


Break
G|---------------------------------------------------------|
D|------5-7-5------------------7-5/7-----------------------|
A|-/22--------7-3------3/12-----7-----7/15\14/15\14/15-12--|
E|---------------5----5------5-----------------------------|


verse
G|----------10h12----|--------0---0-----|----------10h12----|--------------------|
D|----2---5------11--|----2-------------|----2---5------11--|----2---------------|
A|-------------------|------------------|-------------------|--------------------|
E|-0xx-0h3-----------|-0xx-3\2-3\2-3\2--|-0xx-0h3-----------|-0xx-0h3xx2h3xx2h3--|

        1x               1x                1x
G|----------10h12----|------------7h9p7h9-|----------------|
D|----2---5------11--|-----2---5----------|----2---5-------|
A|-------------------|--------------------|----------7\~ --|
E|-0xx-0h3-----------|--0xx-0h3-----------|-0xx-0h3--------|





End      3x                     1x                       1x
G|-----------------------|--------------------------|-----------------------|
D|-----------------------|--------------------------|-----------------------|
A|---5h777777-5555-3333--|---5h777777-5555--7-55----|-----7777-5555-33-333--|
E|-00--------------------|-00--------------7----7---|-0000------------------|


         1x                     1x                      
G|-----------------------|----------------------------|
D|-----------------------|----------------------------|
A|-77777777-5555-33-333--|-77777777-9999-10,10,10,10--|
E|-----------------------|----------------------------|


         1x
G|------------------------------------------|
D|------------------------------------------|
A|-/19,19--19,19,19,19-19,19--05---23-------|
E|------------------------------3-5--033h5--|


         3x                     1x                     
G|-------------------------|----------------|
D|-------------------------|----------------|
A|---5h777777-55----3-23-5-|---5h7-55-5-33--|
E|-00-----------23-5-------|-00-------------|
            
Submit corrections

↑ Back to top | Tablatures and chords for acoustic guitar and electric guitar, ukulele, drums are parodies/interpretations of the original songs. You may use it for private study, scholarship, research or language learning purposes only