Home » A » Anouk »

Anouk - Nobody's Wife Bass

Artists:  A B C D E F G H I J K L M N O P Q R S T U V W X Y Z # 

Nobody's Wife Bass
Version #1
Anouk


Copy URL
Tuning: Normal, G D A E
Intro:
G----------------------------|
D—1-------------1------------|
A----2-------------2---------| 
E-------4--2-1--------4--2-1-|

Verse 1: (I'm sorry...)
G----------------------------|
D—1-------------1------------|
A----2-------------2---------| 
E-------4--2-1--------4--2-1-|

G----------------------------|
D—1-------------1------------|
A----2-------------2---------| 
E-------4--2-1--------0------|

Chorus: It's too bad...
G--------------------------------------|
D—1-1----------------1-1---------------|
A----2-2----------------2-2------------|
E-------44-4-44-2-1--------44-4-44-2-1-|

     That I can carry...
G---------------------------------------------------------------|
D---------------------------------------------------------------|
A------4-4------2------4-4------2------4-4------2------4------2-|
E--4-4------2-2----4-4------2-2----4-4------2-2----4-4----2-2---|

Bridge:
G----------------------------|
D—1-------------1------------|
A----2-------------2---------| 
E-------4--2-1--------4--2-1-|

Verse 2: (I'm sorry...)
G----------------------------|
D—1-------------1------------|
A----2-------------2---------| 
E-------4--2-1--------4--2-1-|

G----------------------------|
D—1-------------1------------|
A----2-------------2---------| 
E-------4--2-1--------4--2-1-|

G----------------------------|
D—1-------------1------------|
A----2-------------2---------| 
E-------4--2-1--------0------|

Chorus:
G--------------------------------------|
D—1-1----------------1-1---------------|
A----2-2----------------2-2------------|
E-------44-4-44-2-1--------44-4-44-2-1-|

     That I can carry...
G---------------------------------------------------------------|
D---------------------------------------------------------------|
A------4-4------2------4-4------2------4-4------2------4------2-|
E--4-4------2-2----4-4------2-2----4-4------2-2----4-4----2-2---|

Solo:
G--------------------------------------|
D—1-1----------------1-1---------------|
A----2-2----------------2-2------------|
E-------44-4-44-2-1--------44-4-44-2-1-|

G--------------------------------------|
D—1-1----------------1-1---------------|
A----2-2----------------2-2------------|
E-------44-4-44-2-1--------44-4-44-2-1-|

Chorus:
G--------------------------------------|
D—1-1----------------1-1---------------|
A----2-2----------------2-2------------|
E-------44-4-44-2-1--------44-4-44-2-1-|

     That I can carry...
G---------------------------------------------------------------|
D---------------------------------------------------------------|
A------4-4------2------4-4------2------4-4------2------4------2-|
E--4-4------2-2----4-4------2-2----4-4------2-2----4-4----2-2---|

Outro:
G--------------------------------------|
D—1-1----------------1-1---------------|
A----2-2----------------2-2------------|
E-------44-4-44-2-1--------44-4-44-2-1-|

G--------------------------------------|
D—1-1----------------1-1---------------|
A----2-2----------------2-2------------|
E-------44-4-44-2-1--------44-4-44-2-1-|
            
Submit corrections

↑ Back to top | Tablatures and chords for acoustic guitar and electric guitar, ukulele, drums are parodies/interpretations of the original songs. You may use it for private study, scholarship, research or language learning purposes only