Home » A » Anouk »

Anouk - Modern World Bass

Artists:  A B C D E F G H I J K L M N O P Q R S T U V W X Y Z # 

Modern World Bass
Version #1
Anouk


Copy URL

Please listen to the song to get a feel of the bassline

Intro
G|-----------|--------|-----------|--------|
D|-----------|--------|-------6-8-|--------|
A|-6-6---4-6-|-6-6----|-----8-----|--------|
E|-----6-----|--------|-6-6-------|-6-6----|

G|-----------|-----------|-----------|------|
D|-----------|-----------|-------6-8-|------|
A|-8-8---6-8-|-6-6---4-6-|-----8-----|------|
E|-----6-----|-----4-----|-6-6-------|-6----|

Verse
G|-----------|--------|-----------|--------|
D|-----------|--------|-------6-8-|--------| 
A|-6-6---4-6-|-6-6----|-----8-----|--------| 3x
E|-----6-----|--------|-6-6-------|-6-6----|

G|-----------|-----------|-----------|------|
D|-----------|-----------|-------6-8-|------|
A|-8-8---6-8-|-6-6---4-6-|-----8-----|------|
E|-----6-----|-----4-----|-6-6-------|-6----|

Chorus
G|-----------|-----------|-----------|-----------|
D|-----------|-----------|-------6-8-|-------6-8-|
A|-6-6---4-6-|-6-6---4-6-|-----8-----|-----8-----|
E|-----6-----|-----6-----|-6-6-------|-6-6-------|

G|-----------|-----------|-----------|------|
D|-----------|-----------|-------6-8-|------|
A|-8-8---6-8-|-6-6---4-6-|-----8-----|------|
E|-----6-----|-----4-----|-6-6-------|-6----|

Verse (see above)
Chorus (see above, although this time on last measure play:)

G|-----------|
D|-----------|
A|-----------|
E|-6666-6666-|

Bridge (play normal chorus, see above)
Verse (see above)
Chorus (play chorus with last measure change)
Bridge (play chorus with last measure change)

Outro
G|-----------|-----------|-----------|-----------|
D|-------6-8-|-------6-8-|-------6-8-|-----------|
A|-----8-----|-----8-----|-----8-----|-----------|
E|-6-6-------|-6-6-------|-6-6-------|-6~--------|

Well, thats it. An easy but wonderful song.

Enjoy!
            
Submit corrections

↑ Back to top | Tablatures and chords for acoustic guitar and electric guitar, ukulele, drums are parodies/interpretations of the original songs. You may use it for private study, scholarship, research or language learning purposes only