» » »

Andrew Lloyd Webber - Phantom Of The Opera Tabs

Artists:  A B C D E F G H I J K L M N O P Q R S T U V W X Y Z # 

Phantom Of The Opera Tabs

(ver. 3) Click to play this song!
Andrew Lloyd Webber
 Rating:
4/5 (6 votes)

 Phantom Of The Opera lessons Tabs too difficult? Try these video lessons and learn fast
 
                This is the whole package (and my second tab)! Leave a comment, good or bad and
if you find any; criticism brings it closer to the most accurate it can be.  This tab is mostly
the voices and the famous DUUUUUUUNNNN! DUN DUN DUN DUN DUN...I also tabbed that part 
Christine sings that awesome scale while the Phantom says "Sing to me my Angel!" This
be pretty easy, but that's just my opinion...enjoy!

INTRO

e-5--5-4-3-2-1------5--5-4-3-2-1------1-2-3-4-5-----------------|
B---------------------------------------------------------------|
G---------------------------------------------------------------|
D---------------------------------------------------------------|
A---------------------------------------------------------------|
E--------------(4-6)-------------(4-6)--------------------------|

VERSE

e-------------------------------------------1-5-3-3--3-8-3-5----|
B---3--1-------1-------3--1-------1-------3---------------------|
G-2--2--3-3--0--0-2--2--2--3-3--0--0-2--2-----------------------|
D---------------------------------------------------------------|
A---------------------------------------------------------------|
E---------------------------------------------------------------|

CHORUS

e-5-10--8-6-5-3-1-0------------------10-9-8-7-6-(4-6)-7-6-5-4-3-|
B-------------------3-2-----------------------------------------|
G------------------------3-3-2-2--------------------------------|
D---------------------------------------------------------------|
A---------------------------------------------------------------|
E---------------------------------------------------------------|

VERSE

e-------------------------------------------1-5-3-3--3-8-3-5----|
B---3--1-------1-------3--1-------1-------3---------------------|
G-2--2--3-3--0--0-2--2--2--3-3--0--0-2--2-----------------------|
D---------------------------------------------------------------|
A---------------------------------------------------------------|
E---------------------------------------------------------------|

CHORUS

e-5-10--8-6-5-3-1-0------------------10-9-8-7-6-(4-6)-7-6-5-4-3-|
B-------------------3-2-----------------------------------------|
G------------------------3-3-2-2--------------------------------|
D---------------------------------------------------------------|
A---------------------------------------------------------------|
E---------------------------------------------------------------|

VERSE (Careful, it changes key!)

e-------------------------------------------3-7-5-5--5-10-5-7---|
B---5--3-------3-------5--3-------3-------5---------------------|
G-4--4--5-5--2--2-4--4--4--5-5--2--2-4--4-----------------------|
D---------------------------------------------------------------|
A---------------------------------------------------------------|
E---------------------------------------------------------------|

CHORUS

e-7-12--10-8-7-5-3-2--------------------------------------------|
B-------------------5-4-----------------------------------------|
G------------------------5-5-4-4--------------------------------|
D---------------------------------------------------------------|
A---------------------------------------------------------------|
E---------------------------------------------------------------|

BRIDGE (Is there a Phan-tom of the Op-ra?)

e-12-12--14-14-12-12-12-12-19--12-12--14-14-12-12-12-12-19------|
B---------------------------------------------------------------|
G---------------------------------------------------------------|
D---------------------------------------------------------------|
A---------------------------------------------------------------|
E---------------------------------------------------------------|

VERSE

e-------------------------------------------3-7-5-5--5-10-5-7---|
B---5--3-------3-------5--3-------3-------5---------------------|
G-4--4--5-5--2--2-4--4--4--5-5--2--2-4--4-----------------------|
D---------------------------------------------------------------|
A---------------------------------------------------------------|
E---------------------------------------------------------------|

CHORUS

e-7-12--10-8-7-5-3-2--------------------------------------------|
B-------------------5-4-----------------------------------------|
G------------------------5-5-4-4--------------------------------|
D---------------------------------------------------------------|
A---------------------------------------------------------------|
E---------------------------------------------------------------|

OUTRO (Sing to me, my angel of music!)
e-13-13--15-15-13-13-13-13-20--16--15-16-15-13-15-13-11-13-16--|
B------------------------------------|--|----------------------|
G--------------------------------------------------------------|(Hammer-on, "|" indicates where)
D--------------------------------------------------------------|
A--------------------------------------------------------------|
E--------------------------------------------------------------|

e-18--17-18-17-15-17-15-13-15-18--18--17-18-17-15-17-15-13-15-18-|
B-------|--|----------------------------|--|---------------------|
G----------------------------------------------------------------|
D----------------------------------------------------------------|
A----------------------------------------------------------------|
E----------------------------------------------------------------|

e-20--19-20-19-17-19-17-15-17-20--20--20--20--24!!!-------------|
B-------|--|----------------------------------------------------|
G---------------------------------------------------------------|
D---------------------------------------------------------------|
A---------------------------------------------------------------|
E---------------------------------------------------------------|
            
Submit corrections


        Phantom Of The Opera lessons Hard to play? Try these video lessons and learn fast Phantom Of The Opera lessons
        
↑ Back to top | Tablatures and chords for acoustic guitar and electric guitar, ukulele, drums are parodies/interpretations of the original songs. You may use it for private study, scholarship, research or language learning purposes only