» » »

Andrew Lloyd Webber - Phantom Of The Opera Bass

Artists:  A B C D E F G H I J K L M N O P Q R S T U V W X Y Z # 

Phantom Of The Opera Bass

(ver. 1) Click to play this song!
Andrew Lloyd Webber
 Rating:
4.4/5 (7 votes)

 Phantom Of The Opera lessons Tabs too difficult? Try these video lessons and learn fast
 
                Phantom of the Opera by Andrew Lloyd Webber

G|--------|--------|--------|--------|--------|--------|--------|--------|
D|--------|--------|--------|--------|--------|--------|--------|--------|
A|55555555|55555432|11111111|-1111234|55555555|55555432|11111111|-1111234|
E|--------|--------|--------|4-------|--------|--------|--------|4-------|
 |+ + + + |+ + + + |+ + + + |+ + + + |+ + + + |+ + + + |+ + + + |+ + + + |

G|--------|--------|--------|--------|--------|--------|--------|--------|--------|
D|--------|--------|55555555|--------|--------|--------|55555555|--------|--------|
A|55555555|55555555|--------|33333333|55555553|55555555|--------|33333333|55555555|
E|--------|--------|--------|--------|--------|--------|--------|--------|--------|
 |+ + + + |+ + + + |+ + + + |+ + + + |+ + + + |+ + + + |+ + + + |+ + + + |+ + + + |

G|--------|--------|--------|--------|--------|--------|--------|--------|
D|--------|--------|--------|--------|--------|--------|--------|--------|
A|55555555|11111111|33333333|55555553|55555555|55555555|55555555|11111111|
E|--------|--------|--------|--------|--------|--------|--------|--------|
 |+ + + + |+ + + + |+ + + + |+ + + + |+ + + + |+ + + + |+ + + + |+ + + + |

G|--------|--------|--------|--------|--------|------7-|--------|
D|--------|--------|--------|--------|--------|555555--|555555--|
A|11111111|55555555|55555432|11111111|-1114321|--------|------55|
E|--------|--------|--------|--------|4-------|--------|--------|
 |+ + + + |+ + + + |+ + + + |+ + + + |+ + + + |+ + + + |+ + + + |

G|--------|--------|------7-|--------|--------|--------|------7-|--------|
D|--------|33333333|555555--|555555--|--------|33333333|555555--|555555--|
A|33333333|--------|--------|------55|33333333|--------|--------|------55|
E|--------|--------|--------|--------|--------|--------|--------|--------|
 |+ + + + |+ + + + |+ + + + |+ + + + |+ + + + |+ + + + |+ + + + |+ + + + |

G|--------|--------|--------|--------|--------|--------|--------|--------|
D|11111111|33333333|5555555-|555555--|555555--|5555555-|--------|44444444|
A|--------|--------|-------5|------55|------55|-------5|33333333|--------|
E|--------|--------|--------|--------|--------|--------|--------|--------|
 |+ + + + |+ + + + |+ + + + |+ + + + |+ + + + |+ + + + |+ + + + |+ + + + |

G|--------|--------|--------|--------|
D|55555555|55555432|11111111|00000000|
A|--------|--------|--------|--------|
E|--------|--------|--------|--------|
 |+ + + + |+ + + + |+ + + + |+ + + + |

G|--------|--------|22-22--2|--------|--------|44-44--4|22-22--2|--------|44-44--4|
D|22-22--2|22-22--2|--------|44-44--4|22-22--2|--------|--------|44-44--4|--------|
A|--------|--------|--------|--------|--------|--------|--------|--------|--------|
E|--------|--------|--------|--------|--------|--------|--------|--------|--------|
 |+ + + + |+ + + + |+ + + + |+ + + + |+ + + + |+ + + + |+ + + + |+ + + + |+ + + + |

G|44-44--4|--------|--------|--------|--------|--------|--------|--------|
D|--------|--------|--------|22-22--2|22-22---|22-22--2|22-22--2|--------|
A|--------|33-33--3|55-55--5|--------|------22|--------|--------|33-33--3|
E|--------|--------|--------|--------|--------|--------|--------|--------|
 |+ + + + |+ + + + |+ + + + |+ + + + |+ + + + |+ + + + |+ + + + |+ + + + |

G|--------|--------|--------|--------|--------|--------|--------|--------|--------|
D|--------|22222222|222221--|--------|-------1|22222222|222221--|--------|-------2|
A|33-33--3|--------|------54|33333333|3333345-|--------|------54|33333333|3333345-|
E|--------|--------|--------|--------|--------|--------|--------|--------|--------|
 |+ + + + |+ + + + |+ + + + |+ + + + |+ + + + |+ + + + |+ + + + |+ + + + |+ + + + |

G|--------|--------|--------|--------|--------|--------|--------|--------|--------|
D|33333331|33333333|--------|1--11--1|3--33--3|3--33--3|--------|1--11--1|3--33--3|
A|--------|--------|4--44--4|--------|--------|--------|4--44--4|--------|--------|
E|--------|--------|--------|--------|--------|--------|--------|--------|--------|
 |+ + + + |+ + + + |+ + + + |+ + + + |+ + + + |+ + + + |+ + + + |+ + + + |+ + + + |

G|--------|--------|--------|--------|--------|--------|--------|--------|--------|
D|3--3331-|--------|11-11--1|33-33--3|33-33--3|33-33--3|33-33--3|--------|--------|
A|-------3|44-44--4|--------|--------|--------|--------|--------|44-44--4|44-44--4|
E|--------|--------|--------|--------|--------|--------|--------|--------|--------|
 |+ + + + |+ + + + |+ + + + |+ + + + |+ + + + |+ + + + |+ + + + |+ + + + |+ + + + |

G|--------|--------|--------|--------|--------|--------|--------|--------|
D|33333333|33333333|--------|------12|33333333|3333321-|--------|------12|
A|--------|--------|44444444|444445--|--------|-------5|44444444|444445--|
E|--------|--------|--------|--------|--------|--------|--------|--------|
 |+ + + + |+ + + + |+ + + + |+ + + + |+ + + + |+ + + + |+ + + + |+ + + + |

G|--------|--------|--------|--------|--------|--------|--------|--------|
D|33313333|3333321-|--------|-----134|55535555|55555432|111-1111|11111234|
A|--------|-------5|44424444|44444---|--------|--------|---4----|--------|
E|--------|--------|--------|--------|--------|--------|--------|--------|
 |+ + + + |+ + + + |+ + + + |+ + + + |+ + + + |+ + + + |+ + + + |+ + + + |

G|--------|--------|--------|-------1|222-2222|222221--|--------|-------1|
D|55535555|55555432|111-1111|1111135-|---5----|------54|33313333|3333345-|
A|--------|--------|---4----|--------|--------|--------|--------|--------|
E|--------|--------|--------|--------|--------|--------|--------|--------|
 |+ + + + |+ + + + |+ + + + |+ + + + |+ + + + |+ + + + |+ + + + |+ + + + |

G|222-2222|222221--|--------|-------1|222-2222|222221--|2~------|
D|---5----|------54|33313333|3333345-|---5----|------54|--------|
A|--------|--------|--------|--------|--------|--------|--------|
E|--------|--------|--------|--------|--------|--------|--------|
 |+ + + + |+ + + + |+ + + + |+ + + + |+ + + + |+ + + + |++++++++|
            
Submit corrections


        Phantom Of The Opera lessons Hard to play? Try these video lessons and learn fast Phantom Of The Opera lessons
        
↑ Back to top | Tablatures and chords for acoustic guitar and electric guitar, ukulele, drums are parodies/interpretations of the original songs. You may use it for private study, scholarship, research or language learning purposes only