» » »

Andrew Lloyd Webber - Angel Of Music Tabs

Artists:  A B C D E F G H I J K L M N O P Q R S T U V W X Y Z # 

Angel Of Music Tabs

(ver. 2) Click to play this song!
Andrew Lloyd Webber
 Rating:
4/5 (6 votes)

 Angel Of Music lessons Tabs too difficult? Try these video lessons and learn fast
 
                -------------------------------------------------------------------------------
              Angel of Music - Andrew Lloyd Webber
-------------------------------------------------------------------------------

This is also my first tab ever!!!!! Let me know how I did!!!! ;)

Tuning: Standard
Adding Vibrato and sliding up to notes is optional but if done right sounds 100% better....
e|------------------------------------------------------------------------------|
B|-12--10-8-10---7-5---10-7-3~---12--10-8-3~---0-8~-----------------------------| x2
G|------------------------------------------------------------------------------|
D|------------------------------------------------------------------------------|
A|------------------------------------------------------------------------------|
E|------------------------------------------------------------------------------|

e|-----------------------------------------------------------------------------------|
B|-8-7-5-3-1-0-0-5~----5-3-1-1--0---0------8-7-5-3-1-0-0-5----5-6-8--12---12/13-10~--|
G|--------------------------------------2--------------------------------------------|
D|-----------------------------------------------------------------------------------|
A|-----------------------------------------------------------------------------------|
E|-----------------------------------------------------------------------------------|

e|------------------------------------------------------------------------------|
B|-12--10-8-10---7-5---10-7-3~---12--10-8-3~---0-8~-----------------------------| x2
G|------------------------------------------------------------------------------|
D|------------------------------------------------------------------------------|
A|------------------------------------------------------------------------------|
E|------------------------------------------------------------------------------|

e|-----------------------------------------------------------------------------------|
B|-8-7-5-3-1-0-0-5~----5-3-1-1--0---0------8-7-5-3-1-0-0-5----5-6-8--12---12/13-10~--|
G|--------------------------------------2--------------------------------------------|
D|-----------------------------------------------------------------------------------|
A|-----------------------------------------------------------------------------------|
E|-----------------------------------------------------------------------------------|

e|-----------------------------------------------------------------------------------|
B|-12--10-8-10---7-5---10-7-3~---12--10-8-3~---0-8~----------------------------------| x2
G|-----------------------------------------------------------------------------------|
D|-----------------------------------------------------------------------------------|
A|-----------------------------------------------------------------------------------|
E|-----------------------------------------------------------------------------------|


e|-----------------------------------------------------------------------------------|
B|-8-7-5-3-1-0-0-5~----5-3-1-1--0---0------8-7-5-3-1-0-0-5----5-6-8--12---12/13-10~--|
G|--------------------------------------2--------------------------------------------|
D|-----------------------------------------------------------------------------------|
A|-----------------------------------------------------------------------------------|
E|-----------------------------------------------------------------------------------|

On the last phrase of the repeat in the ending, which is below, slow down and get softer 
minding style...
e|------------------------------------------------------------------------------|
B|-12--10-8-10---7-5---10-7-3~---12--10-8-3~---0-8~-----------------------------| x2
G|------------------------------------------------------------------------------|
D|------------------------------------------------------------------------------|
A|------------------------------------------------------------------------------|
E|------------------------------------------------------------------------------|


| /  slide up
| \  slide down
| h  hammer-on
| p  pull-off
| ~  vibrato
| +  harmonic
| x  Mute note
            
Submit corrections


        Angel Of Music lessons Hard to play? Try these video lessons and learn fast Angel Of Music lessons
        
↑ Back to top | Tablatures and chords for acoustic guitar and electric guitar, ukulele, drums are parodies/interpretations of the original songs. You may use it for private study, scholarship, research or language learning purposes only